Oops, an error
Loading. Please wait.

Remedy Tab

version 3
version 3
4,778 views 1 this week
no commentswrite comment
1 2 3 4 5
accurate
x 3
add to favorites
launch autoscroll
font size
0
reset
how to read this tab
guitar tuner
Tab Pro tools
  • play this tab
  • loop segment
  • change instrument
  • show fretboard
  • metronome
×
Best way to learn
"Remedy"
Autoscroll
slow
fast
+/-
esc
set tempo
stop
Tuning: Half step down and drop D
Db Ab Db Gb Bb Eb

Opening (Medium Distortion)4x
Shaun

|---------------|
|---------------|
|---------------|
|-22-0-22-0h5-2-|
|-22-0-22-0h5-2-|
|-22-0-22-0h5-2-|

Part 2 (opening) Heavy Distortion
Shaun and Pat for 4 measures then Pat for 4 more

|---------------|
|---------------|
|---------------|
|-22-0-22-0h5-2-|
|-22-0-22-0h5-2-|
|-22-0-22-0h5-2-|

On 5th - 8th measure Shaun does

|--------------------------------------------------------------------|
|-12-12--12-12p10--12-12--12-12p10--12-12--12-12p10--14-14--14-14p12-|
|--------------------------------------------------------------------|
|--------------------------------------------------------------------|
|--------------------------------------------------------------------|
|--------------------------------------------------------------------|

Verse - Bunch of times (Clean)
Pat

|---------------------|
|---------------------|
|---------------------|
|---2----5----2----5--|
|--2----5----2----5---|
|-2--2s5--5s2--2s5----|

Pre-Chorus - Heavy Distortion
"If you want me.."

|---------------|
|---------------|
|---------------|
|-7777777733333-|
|-7777777733333-|
|-7777777733333-|

Chorus - Heavy Distortion
"Frail, this skin is dry and pale..."

|---------------------------------------------|
|---------------------------------------------|
|---------------------------------------------|
|-2-0-22-0h5--2-0-22-0h5--2-0-22-0h5s7-777-55-|
|-2-0-22-0h5--2-0-22-0h5--2-0-22-0h5s7-777-55-|
|-2-0-22-0h5--2-0-22-0h5--2-0-22-0h5s7-777-55-|

Verse - Bunch of measures - Clean (Shaun comes in w/ distortion about half way through)

|---------------------|
|---------------------|
|---------------------|
|---2----5----2----5--|
|--2----5----2----5---|
|-2--2s5--5s2--2s5----|


Pre-Chorus - Heavy Distortion
"If you want me.."

|---------------|
|---------------|
|---------------|
|-7777777733333-|
|-7777777733333-|
|-7777777733333-|

Chorus - Heavy Distortion
"Frail, this skin is dry and pale..."

|---------------------------------------------|
|---------------------------------------------|
|---------------------------------------------|
|-2-0-22-0h5--2-0-22-0h5--2-0-22-0h5s7-777-55-|
|-2-0-22-0h5--2-0-22-0h5--2-0-22-0h5s7-777-55-|
|-2-0-22-0h5--2-0-22-0h5--2-0-22-0h5s7-777-55-|

Bridge - Heavy Distortion
"Hold your eyes closed, take me in..."

|-----------------------------------|
|-----------------------------------|
|-5555-7777-9999-7777-5555-4444-2-2-|
|-5555-7777-9999-7777-5555-4444-2-2-|
|-3333-5555-7777-5555-3333-2222-0-0-|
|-----------------------------------|

|---------------------------------|
|---------------------------------|
|-5555-7777-9999-7777-555-777-9---|
|-5555-7777-9999-7777-555-777-9---|
|-3333-5555-7777-5555-333-555-7---|
|---------------------------------|

Clean chords right before semi solo 4x

|---------------|
|---------------|
|---------------|
|-22-0-22-0h5-2-|
|-22-0-22-0h5-2-|
|-22-0-22-0h5-2-|

Semi-Solo (Shaun)

|--------------------------------------------------------------------|
|-12-12--12-12p10--12-12--12-12p10--12-12--12-12p10--14-14--14-14p12-|
|--------------------------------------------------------------------|
|--------------------------------------------------------------------|
|--------------------------------------------------------------------|
|--------------------------------------------------------------------|

|--------------------------------------------------------------------|
|-12p-10--12p-10--12p-10--12p-10--12p-10--12p-10-14-14-14-14-14p-12--|
|--------------------------------------------------------------------|
|--------------------------------------------------------------------|
|--------------------------------------------------------------------|
|--------------------------------------------------------------------|

Backing the semi-solo (pat, heavy distortion)

|---------------|
|---------------|
|---------------|
|-22-0-22-0h5-2-|
|-22-0-22-0h5-2-|
|-22-0-22-0h5-2-|

Chorus 2x

|---------------------------------------------|
|---------------------------------------------|
|---------------------------------------------|
|-2-0-22-0h5--2-0-22-0h5--2-0-22-0h5s7-777-55-|
|-2-0-22-0h5--2-0-22-0h5--2-0-22-0h5s7-777-55-|
|-2-0-22-0h5--2-0-22-0h5--2-0-22-0h5s7-777-55-|
comments
We did not receive enough feedback on this tab! Please rate:
print report bad tab
1 2 3 4 5
I want to post or [tab]
guest
You may want to rate the tab now too:
select rating
Please do not post tabs as comments. Select "correction" instead!