Oops, an error
Loading. Please wait.

Remedy Bass Tab

version 5
version 5
1,921 views 1 this week
1 commentread comment
1 2 3 4 5
please rate
add to favorites
launch autoscroll
font size
0
reset
guitar tuner
Autoscroll
slow
fast
+/-
esc
set tempo
stop
Help us to improve Ultimate-Guitar.com Take our survey!
×
Author
#----------------------------------PLEASE NOTE---------------------------------#
#This file is the author's own work and represents their interpretation of the #
#song. You may only use this file for private study, scholarship, or research. #
#------------------------------------------------------------------------------#

REMEDY (Bassline)
As recorded by Seether



Transcribed by Gary Ramsey 1/2 step down drop D

 

 

Gtr I (D A D G) - 'Staff'


  Q=128
 4/4
  Gtr I
  W          W          W          W
|----------|----------|----------|------|
|----------|----------|----------|------|
|----------|----------|----------|------|
|----------|----------|----------|------|


  Q  E E E E E E   Q  E E E E E E   Q  E E E E E E   Q  E E E E E E
|----------------|----------------|----------------|----------------|
|----------------|----------------|----------------|----------------|
|----------------|----------------|----------------|----------------|
|-2----0-2-2-0-5-|-2----0-2-2-0-5-|-2----0-2-2-0-5-|-2----0-2-2-0-5-|


  Q  E E E E E E   Q  E E E E E E   Q  E E E E E E   Q  E E E E E E
|----------------|----------------|----------------|----------------|
|----------------|----------------|----------------|----------------|
|----------------|----------------|----------------|----------------|
|-2----0-2-2-0-5-|-2----0-2-2-0-5-|-2----0-2-2-0-5-|-2----0-2-2-0-5-|


  E E E E E E E E   E E E E E E E E   E E E E E E E E   E E E E E E E E
|-----------------|-----------------|-----------------|-----------------|
|-----------------|-----------------|-----------------|-----------------|
|-----------------|-----------------|-----------------|-----------------|
|-2-2-2-2-0-0-0-0-|-2-2-2-2-5-5-5-5-|-2-2-2-2-0-0-0-0-|-2-2-2-2-5-5-5-5-|


  E E E E E E E E   E E E E E E E E   E E E E E E E E   E E E E E E E E
|-----------------|-----------------|-----------------|-----------------|
|-----------------|-----------------|-----------------|-----------------|
|-----------------|-----------------|-----------------|-----------------|
|-2-2-2-2-0-0-0-0-|-2-2-2-2-5-5-5-5-|-2-2-2-2-0-0-0-0-|-2-2-2-2-5-5-5-5-|


  E E E E E E E E   E E E E E E E E   E E E E E E E E   E E E E E E E E
|-----------------|-----------------|-----------------|-----------------|
|-----------------|-----------------|-----------------|-----------------|
|-----------------|-----------------|-----------------|-----------------|
|-2-2-2-2-0-0-0-0-|-2-2-2-2-5-5-5-5-|-2-2-2-2-0-0-0-0-|-2-2-2-2-5-5-5-5-|


  E E E E E E E E   E E E E E E E E   E E E E E E E E   E E E E E E E E
|-----------------|-----------------|-----------------|-----------------|
|-----------------|-----------------|-----------------|-----------------|
|-----------------|-----------------|-----------------|-----------------|
|-2-2-2-2-0-0-0-0-|-2-2-2-2-5-5-5-5-|-2-2-2-2-0-0-0-0-|-2-2-2-2-5-5-5-5-|


  E E E E E E E E   E E E E H      Q  E E E E E E   Q  E E E E E E
|-----------------|--------------|----------------|----------------|
|-----------------|--------------|----------------|----------------|
|-----------------|--------------|----------------|----------------|
|-7-7-7-7-7-7-7-7-|-3-3-3-3------|-2----0-2-2-0-5-|-2----0-2-2-0-5-|


  Q  E E E E E E   Q  E E E E Q    Q  E E E E E E   Q  E E E E E E
|----------------|---------------|----------------|----------------|
|----------------|---------------|----------------|----------------|
|----------------|---------------|----------------|----------------|
|-2----0-2-2-0-5-|-7----7-7-5-5--|-2----0-2-2-0-5-|-2----0-2-2-0-5-|


  Q  E E E E E E   Q  E E E E Q    E E E E E E E E   E E E E E E E E
|----------------|---------------|-----------------|-----------------|
|----------------|---------------|-----------------|-----------------|
|----------------|---------------|-----------------|-----------------|
|-2----0-2-2-0-5-|-7----7-7-5-5--|-2-2-2-2-0-0-0-0-|-2-2-2-2-5-5-5-5-|


  E E E E E E E E   E E E E E E E E   E E E E E E E E   E E E E E E E E
|-----------------|-----------------|-----------------|-----------------|
|-----------------|-----------------|-----------------|-----------------|
|-----------------|-----------------|-----------------|-----------------|
|-2-2-2-2-0-0-0-0-|-2-2-2-2-5-5-5-5-|-2-2-2-2-0-0-0-0-|-2-2-2-2-5-5-5-5-|


  E E E E E E E E   E E E E E E E E   E E E E E E E E   E E E E E E E E
|-----------------|-----------------|-----------------|-----------------|
|-----------------|-----------------|-----------------|-----------------|
|-----------------|-----------------|-----------------|-----------------|
|-2-2-2-2-0-0-0-0-|-2-2-2-2-5-5-5-5-|-2-2-2-2-0-0-0-0-|-2-2-2-2-5-5-5-5-|


  E E E E E E E E   E E E E E E E E   E E E E E E E E   E E E E E E E E
|-----------------|-----------------|-----------------|-----------------|
|-----------------|-----------------|-----------------|-----------------|
|-----------------|-----------------|-----------------|-----------------|
|-2-2-2-2-0-0-0-0-|-2-2-2-2-5-5-5-5-|-2-2-2-2-0-0-0-0-|-2-2-2-2-5-5-5-5-|


  E E E E E E E E   E E E E E E E E   E E E E E E E E   E E E E H
|-----------------|-----------------|-----------------|--------------|
|-----------------|-----------------|-----------------|--------------|
|-----------------|-----------------|-----------------|--------------|
|-2-2-2-2-0-0-0-0-|-2-2-2-2-5-5-5-5-|-7-7-7-7-7-7-7-7-|-3-3-3-3------|


  Q  E E E E E E   Q  E E E E E E   Q  E E E E E E   Q  E E E E Q
|----------------|----------------|----------------|---------------|
|----------------|----------------|----------------|---------------|
|----------------|----------------|----------------|---------------|
|-2----0-2-2-0-5-|-2----0-2-2-0-5-|-2----0-2-2-0-5-|-7----7-7-5-5--|


  Q  E E E E E E   Q  E E E E E E   Q  E E E E E E   Q  E E E E Q
|----------------|----------------|----------------|---------------|
|----------------|----------------|----------------|---------------|
|----------------|----------------|----------------|---------------|
|-2----0-2-2-0-5-|-2----0-2-2-0-5-|-2----0-2-2-0-5-|-7----7-7-5-5--|


  Q  E E E E E E   Q  E E E E E E   Q  E E E E E E   Q  E E E E Q
|----------------|----------------|----------------|---------------|
|----------------|----------------|----------------|---------------|
|----------------|----------------|----------------|---------------|
|-2----0-2-2-0-5-|-2----0-2-2-0-5-|-2----0-2-2-0-5-|-7----7-7-5-5--|


  Q  E E E E E E   Q  E E E E E E   Q  E E E E E E   Q  E E E E Q
|----------------|----------------|----------------|---------------|
|----------------|----------------|----------------|---------------|
|----------------|----------------|----------------|---------------|
|-2----0-2-2-0-5-|-2----0-2-2-0-5-|-2----0-2-2-0-5-|-7----7-7-5-5--|


  E E E E E E E E   E E E E E E E E   E E E E E E E E   E E E E E E E E
|-----------------|-----------------|-----------------|-----------------|
|-----------------|-----------------|-----------------|-----------------|
|-3-3-3-3-3-3-3-3-|-0-0-0-0-0-------|-3-3-3-3-3-3-3-3-|-0-0-0-0-0-------|
|-----------------|-----------0-0-0-|-----------------|-----------0-0-0-|


  E E E E E E E E   E E E E E E E E   E E E E E E E E   E E E E E E E E
|-----------------|-----------------|-----------------|-----------------|
|-----------------|-----------------|-----------------|-----------------|
|-3-3-3-3-3-3-3-3-|-0-0-0-0-0-------|-3-3-3-3-3-3-3-3-|-0-0-0-0-0-------|
|-----------------|-----------0-0-0-|-----------------|-----------0-0-0-|


  W          W          W          W
|----------|----------|----------|------|
|----------|----------|----------|------|
|----------|----------|----------|------|
|----------|----------|----------|------|


  Q  E E E E E E   Q  E E E E E E   Q  E E E E E E   Q  E E E E Q
|----------------|----------------|----------------|---------------*|
|----------------|----------------|----------------|---------------*|
|----------------|----------------|----------------|---------------*|
|-2----0-2-2-0-5-|-2----0-2-2-0-5-|-2----0-2-2-0-5-|-7----7-7-5-5--*|




--------------------------------------------------------------------------------


Duration Legend
---------------
W - whole; H - half; Q - quarter; E - 8th; S - 16th; T - 32nd; X - 64th; a - acciaccatura
+ - note tied to previous; . - note dotted; .. - note double dotted
Uncapitalized letters represent notes that are staccato (1/2 duration)
Irregular groupings are notated above the duration line
Duration letters will always appear directly above the note/fret number it represents the
duration for.  Duration letters with no fret number below them represent rests.  Multi-
bar rests are notated in the form Wxn, where n is the number of bars to rest for.  Low
melody durations appear below the staff

Tablature Legend
----------------
 h   - hammer-on
 p   - pull-off
 b   - bend
 pb  - pre-bend
 r   - bend release (if no number after the r, then release immediately)
 /\  - slide into or out of (from/to "nowhere")
 s   - legato slide
 S   - shift slide
 - natural harmonic
[n]  - artificial harmonic
n(n) - tapped harmonic
 ~   - vibrato
 tr  - trill
 T   - tap
 TP  - trem. picking
 PM  - palm muting
\n/  - tremolo bar dip; n = amount to dip
 \n  - tremolo bar down
 n/  - tremolo bar up
/n\  - tremolo bar inverted dip
 =   - hold bend; also acts as connecting device for hammers/pulls
 <> - volume swell (louder/softer)
 x   - on rhythm slash represents muted slash
 o   - on rhythm slash represents single note slash

Misc Legend
-----------
 |  - bar
||  - double bar
||o - repeat start
o|| - repeat end
*|  - double bar (ending)
 :  - bar (freetime)
 $  - Segno
 &  - Coda
Tempo markers -  = BPM(8/16=s8/s16), where s8 = swing 8ths, s16 = swing 16ths



--------------------------------------------------------------------------------

** Generated using Power Tab Editor by Brad Larsen: The Official Power Tab Web Site
Suggest correction
What's this?
You can suggest a correction to this tab. Community and Mods will review your correction and vote to approve or reject it.
comments
We did not receive enough feedback on this tab! Please rate:
print report bad tab
1 2 3 4 5
1 comment total.
0 reply
KennyM79 2,225 wrote on June 9 2015, 01:27 pm

This tab is as flawless as you can ask for, with the sole exception that, again, this song is in Drop-Db.

guest
You may want to rate the tab now too:
select rating
Please do not post tabs as comments. Select "correction" instead!