Oops, an error
Loading. Please wait.

Remedy Tab

version 5
version 5
147,934 views 117 this week
47 commentsread comments
1 2 3 4 5
x 68
add to favorites
launch autoscroll
font size
0
reset
how to read this tab
guitar tuner
×
Best way to learn
"Remedy"
Autoscroll
slow
fast
+/-
esc
set tempo
stop
Author
Difficulty
Tuning
  follow
intermediate
C# G# C# F# A# D#
Guitar 1 - Shaun Morgan
Guitar 2 - Pat Callahan


[INTRO]

Guitar 1 - Dist.
 Play 1x
eb|-------------------------------------------------------|
Bb|-------------------------------------------------------|
Gb|-------------------------------------------------------|
Db|-2-x-0-2-2-0-5-2-x-0-2-2-0-5-2-x-0-2-2-0-5-2-x-0-2-2---|
Ab|-2-x-0-2-2-0-5-2-x-0-2-2-0-5-2-x-0-2-2-0-5-2-x-0-2-2---|
Db|-2-x-0-2-2-0-5-2-x-0-2-2-0-5-2-x-0-2-2-0-5-2-x-0-2-2---|

Guitar 2 - Dist.
 Play 1x
eb|-------------------------------------------------------|
Bb|-----------------------------------------------<4>-----|
Gb|----------------------------------------------------<4>|
Db|-------------------------------------------------<5>---|
Ab|-------------------------------------------------------|
Db|-------------------------------------------------------|

Both Guitars - Dist.
 1x
eb|-------------------------------------------------------|
Bb|-------------------------------------------------------|
Gb|-------------------------------------------------------|
Db|-2-x-0-2-2-0-5-2-x-0-2-2-0-5-2-x-0-2-2-0-5-2-x-0-2-2---|
Ab|-2-x-0-2-2-0-5-2-x-0-2-2-0-5-2-x-0-2-2-0-5-2-x-0-2-2---|
Db|-2-x-0-2-2-0-5-2-x-0-2-2-0-5-2-x-0-2-2-0-5-2-x-0-2-2---|

Guitar 1 - Dist.
eb|-------------------------------------------------------|
Bb|-------------------------------------------------------|
Gb|-------------------------------------------------------|
Db|-2-x-0-2-2-0-5-2-x-0-2-2-0-5-2-x-0-2-2-0-5-2-x-0-2-2---|
Ab|-2-x-0-2-2-0-5-2-x-0-2-2-0-5-2-x-0-2-2-0-5-2-x-0-2-2---|
Db|-2-x-0-2-2-0-5-2-x-0-2-2-0-5-2-x-0-2-2-0-5-2-x-0-2-2---|

Guitar 2 - Dist.
   FB  FB
eb|---------------------------------------------12b-12--0---|
Bb|12--12------0--12--12------0--12--12------0--14--14b-12--|
Gb|14b-14b(14)-12-14b-14b(14)-12-14b-14b(14)-12-------------|
Db|---------------------------------------------------------|
Ab|---------------------------------------------------------|
Db|---------------------------------------------------------|


[VERSE]

Guitar 2 - Mid Dist.
          4x                4x  
eb|------------------|-----------------|
Bb|------------------|-----------------|
Gb|------------------|-----------------|
Db|--2---0---2----5--|--2---0---2----5-|
Ab|-2-2-0-0-2-2--5-5-|-2-2-0-0-2-2--5-5|
Db|2---0---2---/5----|2---0---2---/5---|

Guitar 1 - Dist. and some delay
NOTE: played after Guitar 2 plays verse
                      Play this every 2nd time the measure above is played.
                         LR
eb|------------------|------------------|
Bb|------------------|------------------|
Gb|------------------|14-16-------------|
Db|------------------|------------------|
Ab|------------------|------------------|
Db|------------------|------------------|


[PRE-CHORUS]

Both Guitars - Dist.
eb|----------------------------|
Bb|----------------------------|
Gb|-9-9-9-9-9-9-9-9-5-5-5-5----|
Db|-7-7-7-7-7-7-7-7-3-3-3-3----|
Ab|-7-7-7-7-7-7-7-7-3-3-3-3----|
Db|-7-7-7-7-7-7-7-7-3-3-3-3----|


[CHORUS]

Both Guitars - Dist.
 4x
eb|--------------------------------------------------------|
Bb|--------------------------------------------------------|
Gb|--------------------------------------------------------|
Db|-2-x-0-2-2-0-5-2-x-0-2-2-0-5-2-x-0-2-2-0-5--7--77-55-0--|
Ab|-2-x-0-2-2-0-5-2-x-0-2-2-0-5-2-x-0-2-2-0-5--7--77-55-0--|
Db|-2-x-0-2-2-0-5-2-x-0-2-2-0-5-2-x-0-2-2-0-5--7--77-55-0--|

VERSE
CHORUS


[BRIDGE]

Both Guitars - Dist.
              1st 3 times  4th time
eb|----------|------------|--------------|
Bb|-3333333--|-00000------|-00000--------|
Gb|-5555555--|-22222------|-22222--------|
Db|-5555555-0|-22222-000--|-22222-0-0----|
Ab|-3333333-0|-00000-000--|-00000-0-0----|
Db|----------|-------000--|-------0-0----|

Guitar 1 - Very Mild Dist.
eb|--------------------------------------------------------|
Bb|--------------------------------------------------------|
Gb|--------------------------------------------------------|
Db|-2-0-2-2-0-5-2--0-2-2-0-5-2--0-2-2-0-5-2--0-2-2-0-5-----|
Ab|-2-0-2-2-0-5-2--0-2-2-0-5-2--0-2-2-0-5-2--0-2-2-0-5-----|
Db|-2-0-2-2-0-5-2--0-2-2-0-5-2--0-2-2-0-5-2--0-2-2-0-5-----|


[Solo] - played with main riff behind it from Guitar 1

Guitar 2 - Dist.
       FB             FB             FB          HB  HB 
eb|----------------------------------------------12b-12--0--|
Bb|12--12------0--12--12------0--12--12------0---14--14b-12-|
Gb|14b-14b(14)-12-14b-14b(14)-12-14b-14b(14)-12-------------|
Db|---------------------------------------------------------|
Ab|---------------------------------------------------------|
Db|---------------------------------------------------------|

   FB     FB     FB     FB       FB
eb|-----------------------------------------|
Bb|12-----12-----12-----12-------12-----0---|
Gb|14b(14)14b(14)14b(14)14b(14)s-14(14)s12--|
Db|-----------------------------------------|
Ab|-----------------------------------------|
Db|-----------------------------------------|

   FB     FB     FB     FB      HB
eb|-----------------------------12-------0--|
Bb|12-----12-----12-----12------14b(~14)-12-|
Gb|14b(14)14b(14)14b(14)14b(14)-------------|
Db|-----------------------------------------|
Ab|-----------------------------------------|
Db|-----------------------------------------|


[OUTRO/CHORUS]

Both Guitars - Dist.
 4x
eb|--------------------------------------------------------|
Bb|--------------------------------------------------------|
Gb|--------------------------------------------------------|
Db|-2-x-0-2-2-0-5-2-x-0-2-2-0-5-2-x-0-2-2-0-5--7--77-55-0--|
Ab|-2-x-0-2-2-0-5-2-x-0-2-2-0-5-2-x-0-2-2-0-5--7--77-55-0--|
Db|-2-x-0-2-2-0-5-2-x-0-2-2-0-5-2-x-0-2-2-0-5--7--77-55-0--|



************************************

<> - harmonics
FB - Full Bend
HB - Half Bend
() - Bend back to original strike
LR - Let ring

************************************
Suggest correction
comments
print report bad tab
47 comments total. Showing first comments. show 1 bad comment
0 reply
DarkRetard 10 Sep 21, 2005 05:49 PM

Wow.. nice job this is really alot easier to do than some of the other oens... and it sounds pretty good to me..

0 reply
DarkRetard 10 Sep 21, 2005 05:49 PM

Wow.. nice job this is really alot easier to do than some of the other oens... and it sounds pretty good to me..

guest
You may want to rate the tab now too:
select rating
Wanna post a correction for this tab? Suggest correction