Oops, an error
Loading. Please wait.

Rise Above This Acoustic Tab

version 1
version 1

Whole song

Interactive

44,472 views 9 this week
5 commentsread comments
1 2 3 4 5
accurate
x 12
add to favorites
launch autoscroll
font size
0
reset
how to read this tab
guitar tuner
Tab Pro tools
  • play this tab
  • loop segment
  • change instrument
  • show fretboard
  • metronome
Autoscroll
slow
fast
+/-
esc
set tempo
stop
Contributor
Difficulty
Tuning
novice
B E A D F# B
----------------------------------------------------------------------------
                             Rise Above This(Acoustic) - Seether
----------------------------------------------------------------------------
Tabbed by:Travis
Email:tewells27@yahoo.com

Tuning:C,G,C,F,A,D
This was taken from the Edmonton Acoustic seesions they did and can be found on
put the X as how many times to hit the chord.Not hard to tell when to change chord as 
not a
song to play.

   Intro
e|----------------------------------------------------------------------------|
B|----------------------------------------------------------------------------|
G|---11-------9-------7--7--7/14\11---11------9-------7--7--14\-12------------|
D|-------X7------X3----------------------X7------X3-----------------X8--------|
A|---9--------7-------5--5--5/12\9----9-------7-------5--5--12\-10------------|
E|----------------------------------------------------------------------------|


   Verse Chords
e|----------------------------------------------------------------------------|
B|----------------------------------------------------------------------------|
G|--6-----7-----6-----9----7--------------------------------------------------|
D|-------------------------5--------------------------------------------------|
A|--4-----5-----4-----7----5--------------------------------------------------|
E|-------------------------5--------------------------------------------------|

   Chorus Chords
e|----------------------------------------------------------------------------|
B|---3------------------------------------------------------------------------|
G|---2-------7----------------------------------------------------------------|
D|---0-------5----------------------------------------------------------------|
A|---0-------5----------------------------------------------------------------|
E|-----------5----------------------------------------------------------------|

   Solo
e|---------------------------------------------------------------------17b-----|
B|-----------------------------------------------------------------------------|
G|--2/14---------------------------14-(14)/16----------------------------------|
D|----------14--16----14\12--12----------------14h16-----16--14---12-----------|
A|-----------------------------------------------------------------------------|
E|-----------------------------------------------------------------------------|

e|---14h15h14--------------17b-----14h15h14-----------------------------------|
B|--------------15------------------------------15b---------------------------|
G|--------------------14------------------------------------------------------|
D|----------------------------------------------------------------------------|
A|----------------------------------------------------------------------------|
E|----------------------------------------------------------------------------|

   Bridge
e|----------------------------------------------------------------------------|
B|----------------------------------------------------------------------------|
G|----------------------------------------------------------------------------|
D|--4-------5---7--7-----------------------------6-6-6-------------------7----|
A|--5--X23--5---5--5--7-7--5-5--5-5-5-5--5--5-5--4-4-4--5/7--7--5-----5--5----|
E|--------------------7-7--5-5--5-5-5-5--0--0-0---------5/7--7--5-X6--0--0----|

e|----------------------------------------------------------------------------|
B|----------------------------------------------------------------------------|
G|----------------------------------------------------------------------------|
D|--7--7--6-6--6-----5--------------------------------------------------------|
A|--5--5--4-4--4--or-4--------------------------------------------------------|
E|----------------------------------------------------------------------------|

then repeat intro as outro


| /  slide up
| \  slide down
| h  hammer-on
| p  pull-off
| ~  vibrato
| +  harmonic
| x  Mute note
=============================================================
comments
print report bad tab
5 comments total. Showing first comments.
0 reply
pharm30 wrote on May 21 2008, 04:27 am

thank you! I saw the video on Youtube, great job.

0 reply
Mobroz wrote on August 25 2008, 04:49 pm

GOOD TAB

0 reply
xanatos1313 wrote on March 28 2010, 04:03 pm

intro is the outro. the intro uses these chords in this order:
(0 10 x 12 x x), (0 9 x 11 x x), (0 7 x 9 x x), and (0 12 x 14 x x)
Also the bridge is wrong. He plays it like this:
(5 5 5 7 x x) (x 5 7 7 x x) (x 4 6 6 x x)
Watch the video: http://www.youtube.com/watch?v=lGaDu-WB4xE

I want to post or [tab]
guest
You may want to rate the tab now too:
select rating
Please do not post tabs as comments. Select "correction" instead!