Oops, an error
Loading. Please wait.

Rise Above This Bass Tab

version 3
version 3

Whole song

Interactive

1,581 views 1 this week
no commentswrite comment
1 2 3 4 5
please rate
add to favorites
launch autoscroll
font size
0
reset
guitar tuner
Autoscroll
slow
fast
+/-
esc
set tempo
stop
Help us to improve Ultimate-Guitar.com Take our survey!
×
Author
Tuning
D# G# C# F# A# D#
#----------------------------------PLEASE NOTE---------------------------------#
#This file is the author's own work and represents their interpretation of the #
#song. You may only use this file for private study, scholarship, or research. #
#------------------------------------------------------------------------------#

RISE ABOVE THIS (Bassline)




Transcribed by Gary Ramsey

 

 

Gtr I (Eb Ab Db Gb) - 'Staff'


  Q=120
 4/4
  Gtr I
  W          W          E E E E E E E E   E E E E E E Q
|----------|----------|-----------------|-------------2---|
|----------|----------|-0-0-0-0-0-0-0-0-|-0-0-0-0-0-0-----|
|----------|----------|-----------------|-----------------|
|----------|----------|-----------------|-----------------|


  E E E E E E E E   E E E E E E E E   E E E E E E E E   E E E E E E Q
|-----------------|-----------------|-----------------|----------------|
|-0-0-0-0-0-0-0-0-|-2-2-2-0-0-0-----|-----------------|----------------|
|-----------------|-------------0-0-|-----------------|-------------0--|
|-----------------|-----------------|-3-3-3-3-3-3-3-3-|-3-3-3-3-3-3----|


  E E E E E E E E   E E E E E E E E   E E E E E E E E   E E E E E E E E
|-----------------|-----------------|-----------------|-----------------|
|-----------------|-----------------|-----------------|-----------------|
|-----------------|-------------0-0-|-5-5-5-5-5-5-5-5-|-5-5-5-5-5-5-7-7-|
|-3-3-3-3-3-3-3-3-|-3-3-3-3-3-3-----|-----------------|-----------------|


  E E E E E E E E   E E E E E E E E   E E E E E E E E   E E E E E E E E
|-----------------|-----------------|-----------------|-----------------|
|-----------------|-----------------|-----------------|-----------------|
|-5-5-5-5-5-5-5-5-|-5-5-5-4-4-4-----|-----------------|-----------------|
|-----------------|-------------5-5-|-3-3-3-3-3-3-3-3-|-3-3-3-3-3-3-3-3-|


  E E E E E E E E   E E E E E E Q    E E E E E E E E   E E E E E E E E
|-----------------|----------------|-----------------|-----------------|
|-----------------|----------------|-----------------|-------------7-7-|
|-----------------|-----------0----|-5-5-5-5-5-5-5-5-|-5-5-5-5-5-5-----|
|-3-3-3-3-3-3-3-3-|-3-3-3-3-3------|-----------------|-----------------|


  E E E E E E E E   E E E E E E E E   E E E E E E E E   E E E E E E Q
|-----------------|-----------------|-----------------|----------------|
|-----------------|-----------------|-----------------|----------------|
|-5-5-5-5-5-5-5-5-|-7-7-7-5-5-5-----|-----------------|-------------0--|
|-----------------|-------------5-5-|-3-3-3-3-3-3-3-3-|-3-3-3-3-3-3----|


  E E E E E E E E   E E E E E E E E   E E E E E E E E   E E E E E E Q
|-----------------|-----------------|-----------------|----------------|
|-----------------|-----------------|-----------------|----------------|
|-----------------|-------------0-0-|-5-5-5-5-5-5-5-5-|-5-5-5-5-5-5-7--|
|-3-3-3-3-3-3-3-3-|-3-3-3-3-3-3-----|-----------------|----------------|


  E E E E E E E E   E E E E E E E E   E E E E E E E E   E E E E E E E E
|-----------------|-----------------|-----------------|-----------------|
|-----------------|-----------------|-----------------|-----------------|
|-5-5-5-5-5-5-5-5-|-7-7-7-5-5-5-----|-----------------|-------------0-0-|
|-----------------|-------------5-5-|-3-3-3-3-3-3-3-3-|-3-3-3-3-3-3-----|


  E E E E E E E E   E E E E E E E E   E E E E E E E E   E E E E E E E E
|-----------------|-----------------|-----------------|-----------------|
|-----------------|-----------------|-----------------|-----------------|
|-----------------|-0-0-0-0-0-0-----|-5-5-5-5-5-5-5-5-|-5-5-5-5-5-5-7-7-|
|-3-3-3-3-3-3-3-3-|-------------3-3-|-----------------|-----------------|


  E E E E E E E E   E E E E E E E E   E E E E E E E E   E E E E E E E E
|-----------------|-----------------|-----------------|-----------------|
|-----------------|-----------------|-----------------|-----------------|
|-5-5-5-5-5-5-5-5-|-5-5-5-4-4-4-----|-----------------|-----------------|
|-----------------|-------------5-5-|-3-3-3-3-3-3-3-3-|-3-3-3-3-3-3-3-3-|


  E E E E E E E E   E E E E E E Q    E E E E E E E E   E E E E E E E E
|-----------------|----------------|-----------------|-----------------|
|-----------------|----------------|-----------------|-------------7-7-|
|-----------------|-----------0----|-5-5-5-5-5-5-5-5-|-5-5-5-5-5-5-----|
|-3-3-3-3-3-3-3-3-|-3-3-3-3-3------|-----------------|-----------------|


  E E E E E E E E   E E E E E E E E   E E E E E E E E   E E E E E E Q
|-----------------|-----------------|-----------------|----------------|
|-----------------|-----------------|-----------------|----------------|
|-5-5-5-5-5-5-5-5-|-7-7-7-5-5-5-----|-----------------|-------------0--|
|-----------------|-------------5-5-|-3-3-3-3-3-3-3-3-|-3-3-3-3-3-3----|


  E E E E E E E E   E E E E E E E E   E E E E E E E E   E E E E E E E E
|-----------------|-----------------|-----------------|-----------------|
|-----------------|-----------------|-----------------|-------------7-7-|
|-----------------|-------------0-0-|-5-5-5-5-5-5-5-5-|-5-5-5-5-5-5-----|
|-3-3-3-3-3-3-3-3-|-3-3-3-3-3-3-----|-----------------|-----------------|


  E E E E E E E E   E E E E E E E E   E E E E E E E E   E E E E E E Q
|-----------------|-----------------|-----------------|----------------|
|-----------------|-----------------|-----------------|----------------|
|-5-5-5-5-5-5-5-5-|-7-7-7-5-5-5-----|-----------------|-------------0--|
|-----------------|-------------5-5-|-3-3-3-3-3-3-3-3-|-3-3-3-3-3-3----|


  E E E E E E E E   E E E E E E E E   E E E E E E E E   E E E E E E E E
|-----------------|-----------------|-----------------|-----------------|
|-----------------|-----------------|-----------------|-----------------|
|-----------------|-------------0-0-|-5-5-5-5-5-5-5-5-|-5-5-5-5-5-5-7-7-|
|-3-3-3-3-3-3-3-3-|-3-3-3-3-3-3-----|-----------------|-----------------|


  E E E E E E E E   E E Q  E E E E   E E E E E E E E   E E E E E E E E
|-----------------|----------------|-----------------|-----------------|
|-----------------|----------------|-----------------|-----------------|
|-5-5-5-5-5-5-5-5-|-5-5-5--4-4-----|-----------------|-----------------|
|-----------------|------------5-5-|-3-3-3-3-3-3-3-3-|-3-3-3-3-3-3-3-3-|


  E E E E E E E E   E E E E E E E E   E E E E E E E E   E E E E E E E E
|-----------------|-----------------|-----------------|-----------------|
|-----------------|-----------------|-----------------|-----------------|
|-----------------|-----------0-0-0-|-5-5-5-5-5-5-5-5-|-4-4-4-5-5-5-7-7-|
|-3-3-3-3-3-3-3-3-|-3-3-3-3-3-------|-----------------|-----------------|


  E E E E E E E E   E E E E E E E E   E E E E E E E E   E E E E E E E E
|-----------------|-----------------|-----------------|-----------------|
|-----------------|-----------------|-----------------|-----------------|
|-5-5-5-5-5-5-5-5-|-------------0-0-|-----------------|-5-5-5-4-4-4-----|
|-----------------|-5-5-5-3-3-3-----|-3-3-3-3-3-3-3-3-|-------------5-5-|


  E E E E E E E E   E E E E E E Q    E E E E E E E E   E E E E E E E E
|-----------------|----------------|-----------------|-----------------|
|-----------------|----------------|-----------------|-------------7-7-|
|-----------------|-5-5-5-4-4-4----|-5-5-5-5-5-5-5-5-|-5-5-5-5-5-5-----|
|-3-3-3-3-3-3-3-3-|----------------|-----------------|-----------------|


  E E E E E E E E   E E E E E E E E   E E E E E E E E   E E E E E E Q
|-----------------|-----------------|-----------------|----------------|
|-----------------|-----------------|-----------------|----------------|
|-5-5-5-5-5-5-5-5-|-7-7-7-5-5-5-----|-----------------|-------------0--|
|-----------------|-------------5-5-|-3-3-3-3-3-3-3-3-|-3-3-3-3-3-3----|


  E E E E E E E E   E E E E E E E E   E E E E E E E E   E E E E E E E E
|-----------------|-----------------|-----------------|-----------------|
|-----------------|-----------------|-----------------|-------------7-7-|
|-----------------|-------------0-0-|-5-5-5-5-5-5-5-5-|-5-5-5-5-5-5-----|
|-3-3-3-3-3-3-3-3-|-3-3-3-3-3-3-----|-----------------|-----------------|


  E E E E E E E E   E E E E E E E E   E E E E E E E E   E E E E E E Q
|-----------------|-----------------|-----------------|----------------|
|-----------------|-----------------|-----------------|----------------|
|-5-5-5-5-5-5-5-5-|-7-7-7-5-5-5-----|-----------------|-------------0--|
|-----------------|-------------5-5-|-3-3-3-3-3-3-3-3-|-3-3-3-3-3-3----|


  E E E E E E E E   E E E E E E E E   E E E E E E E E   E E E E E E E E
|-----------------|-----------------|-----------------|-----------------|
|-----------------|-----------------|-----------------|-----------------|
|-----------------|-------------0-0-|-----------------|-----------------|
|-3-3-3-3-3-3-3-3-|-3-3-3-3-3-3-----|-3-3-3-3-3-3-3-3-|-3-3-3-3-3-3-3-3-|


  W          +W           +W           +W
|----------|------------|------------|--------|
|----------|------------|------------|--------|
|-5--------|-(5)--------|-(5)--------|-(5)----|
|----------|------------|------------|--------|


  +W           +W           +W           +H     +H
|------------|------------|------------|---------------*|
|------------|------------|------------|---------------*|
|-(5)--------|-(5)--------|-(5)--------|-(5)----(5)----*|
|------------|------------|------------|---------------*|




--------------------------------------------------------------------------------


Duration Legend
---------------
W - whole; H - half; Q - quarter; E - 8th; S - 16th; T - 32nd; X - 64th; a - acciaccatura
+ - note tied to previous; . - note dotted; .. - note double dotted
Uncapitalized letters represent notes that are staccato (1/2 duration)
Irregular groupings are notated above the duration line
Duration letters will always appear directly above the note/fret number it represents the
duration for.  Duration letters with no fret number below them represent rests.  Multi-
bar rests are notated in the form Wxn, where n is the number of bars to rest for.  Low
melody durations appear below the staff

Tablature Legend
----------------
 h   - hammer-on
 p   - pull-off
 b   - bend
 pb  - pre-bend
 r   - bend release (if no number after the r, then release immediately)
 /\  - slide into or out of (from/to "nowhere")
 s   - legato slide
 S   - shift slide
 - natural harmonic
[n]  - artificial harmonic
n(n) - tapped harmonic
 ~   - vibrato
 tr  - trill
 T   - tap
 TP  - trem. picking
 PM  - palm muting
\n/  - tremolo bar dip; n = amount to dip
 \n  - tremolo bar down
 n/  - tremolo bar up
/n\  - tremolo bar inverted dip
 =   - hold bend; also acts as connecting device for hammers/pulls
 <> - volume swell (louder/softer)
 x   - on rhythm slash represents muted slash
 o   - on rhythm slash represents single note slash

Misc Legend
-----------
 |  - bar
||  - double bar
||o - repeat start
o|| - repeat end
*|  - double bar (ending)
 :  - bar (freetime)
 $  - Segno
 &  - Coda
Tempo markers -  = BPM(8/16=s8/s16), where s8 = swing 8ths, s16 = swing 16ths



--------------------------------------------------------------------------------

** Generated using Power Tab Editor by Brad Larsen: The Official Power Tab Web Site
Suggest correction
What's this?
You can suggest a correction to this tab. Community and Mods will review your correction and vote to approve or reject it.
comments
We did not receive enough feedback on this tab! Please rate:
print report bad tab
1 2 3 4 5
guest
You may want to rate the tab now too:
select rating
Please do not post tabs as comments. Select "correction" instead!