Oops, an error
Loading. Please wait.

River Of Deceit Tab

9,076 views 3 this week
1 commentread comment
1 2 3 4 5
excellent!
x 4
add to favorites
launch autoscroll
font size
0
reset
how to read this tab
guitar tuner
Autoscroll
slow
fast
+/-
esc
set tempo
stop
Help us to improve Ultimate-Guitar.com Take our survey!
×
Author
Difficulty
Tuning
novice
D# G# C# F# A# D#
-------------------------------------------------------------------------------
			    Seether - River of Deceit
-------------------------------------------------------------------------------
Tabbed by:ultimate_crow
Email:nethawk_2003@yahoo.com

Tuning:1/2 step down

This is Seethers cover of Mad Seasons River of Deceit, no one has tabbed it out yet so i 
it a shot, its not complete or perfect but it should give you an idea, theres a couple 
parts i havnt quite figured out yet but i will update as soon as i do.


Intro 2x
eb|-------------------------------------------------|
Bb|--3--3h5p3---3--------------0--------------------|
Gb|--0--------4---4-4\0-0-2/4--0--------------------|
Db|--0-------------------------2-0h2p0--------------|
Ab|--0----------------------------------------------|
Eb|-------------------------------------------------|

eb|--3--3h5p3-----------------------------------------------------3-3-3-3-3|
Bb|--3--3h5p3-----3--------------0--------1-1-1-1-1------1-1-1-1--3-3-3-3-3|
Gb|--0--0-------4---4-4\0-0-2/4--0--------2-2-2-2-2------0-0-0-0-----------|
Db|--0---------------------------2-2-0-0--3-3-3-3-3--0h2-2-2-2-2-----------|
Ab|--0------------------------------------3-3-3-3-3------3-3-3-3--2-2-2-2-2|
Eb|---------------------------------------------------------------3-3-3-3-3|

Verse 8x  The last time dont pull off 2		listen to the song to add this little part
eb|--------------------------3-3-3-3-3-------|		|-3-----|
Bb|-1---1-1-1-1---1-1-1-1-1--3-3-3-3-3-------|		|---3---|
Gb|-2p0-0-0-0-2p0-0-0-0-0-0------------------|		|-----0-|
Db|-3---3-3-3-3---3-3-3-3-3------------------|		|-------|
Ab|-3---3-3-3-3---3-3-3-3-3--2-2-2-2-2-------|		|-------|
Eb|--------------------------3-3-3-3-3-------|		|-------|


eb|------------------------------15-----------------------------15------------|
Bb|-----------------10/12\10---------------------------10-12-10---------------|
Gb|--2p0-0-5p0-0-12----------12---------2p0-0-5p0-0-12------------------------|
Db|---------------------------------------------------------------------------|
Ab|---------------------------------------------------------------------------|
Eb|---------------------------------------------------------------------------|

eb|------------------------------15-----------------------------15----------|
Bb|-----------------10/12\10---------------------------10/12\10-------------|
Gb|--2p0-0-5p0-0-12----------12---------2p0-0-5p0-0-12----------------------|
Db|-------------------------------------------------------------------------|
Ab|-------------------------------------------------------------------------|
Eb|-------------------------------------------------------------------------|


Chorus
eb|--3--5--8--7--7--7--8p7-7--8p7-7-7-----------|
Bb|--3--5--8--8--8--8--8---8--8---8-8-----------|
Gb|--0--0--0--0--0--0--0---0--0---0-0-----------|
Db|---------------------------------------------|
Ab|---------------------------------------------|
Eb|---------------------------------------------|

eb|--3--5--8--7--7--7--8p7-7--10--10-10-10-----|
Bb|--3--5--8--8--8--8--8---8--8---8--8--8------|
Gb|--0--0--0--0--0--0--0---0--0---0--0--0------|
Db|--------------------------------------------|
Ab|--------------------------------------------|
Eb|--------------------------------------------|

eb|--3--5--8--7--7--7--8p7-7--8p7-7-7-----------|
Bb|--3--5--8--8--8--8--8---8--8---8-8-----------|
Gb|--0--0--0--0--0--0--0---0--0---0-0-----------|
Db|---------------------------------------------|
Ab|---------------------------------------------|
Eb|---------------------------------------------|

eb|--3--5--8--7--7--7--8p7-7--10-----|
Bb|--3--5--8--8--8--8--8---8--8------|
Gb|--0--0--0--0--0--0--0---0--0------|
Db|----------------------------------|
Ab|----------------------------------|
Eb|----------------------------------|

listen to the song for timing
I havent figured out the slide part but will post it when i do
eb|----------3-3-3-3--3---------------3-3-3-3--------------3-3-3-3--3\5--3--|
Bb|--1-1-1-1-3-3-3-3----3----1-1-1-1--3-3-3-3-----1-1-1-1--3-3-3-3--3\5--3--|
Gb|--2-2-2-2--------------0--2-2-2-2----------2b--2-2-2-2-------------------|
Db|--3-3-3-3-----------------3-3-3-3--------------3-3-3-3-------------------|
Ab|--3-3-3-3-2-2-2-2---------3-3-3-3--2-2-2-2-----3-3-3-3--2-2-2-2----------|
Eb|----------3-3-3-3------------------3-3-3-3--------------3-3-3-3----------|

Verse 6x   The last time dont pull off 2		listen to the song to add this little part
eb|--------------------------3-3-3-3-3-------|		|-3-----|
Bb|-1---1-1-1-1---1-1-1-1-1--3-3-3-3-3-------|		|---3---|
Gb|-2p0-0-0-0-2p0-0-0-0-0-0------------------|		|-----0-|
Db|-3---3-3-3-3---3-3-3-3-3------------------|		|-------|
Ab|-3---3-3-3-3---3-3-3-3-3--2-2-2-2-2-------|		|-------|
Eb|--------------------------3-3-3-3-3-------|		|-------|

eb|------------------15-------3-3-3-----------------------------------15---------|
Bb|---------------------13----3-3---3-----------------------10/12\10-----13------|
Gb|--2p0-0-5p0-0-12--------12---------0-----2p0-0-5p0-0-12------------------12---|
Db|------------------------------------------------------------------------------|
Ab|---------------------------2-2------------------------------------------------|
Eb|---------------------------3-3------------------------------------------------|

eb|------------------------------15-15-----------------15--------3-3-3-3-|
Bb|-----------------10/12\10------------------------------13-----3-3-3-3-|
Gb|--2p0-0-5p0-0-12----------12---------2p0-0-5p0-0-12-------12----------|
Db|----------------------------------------------------------------------|
Ab|--------------------------------------------------------------2-2-2-2-|
Eb|--------------------------------------------------------------3-3-3-3-|

Chorus
eb|--3--5--8--7--7--7--8p7-7--8p7-7-7-----------|
Bb|--3--5--8--8--8--8--8---8--8---8-8-----------|
Gb|--0--0--0--0--0--0--0---0--0---0-0-----------|
Db|---------------------------------------------|
Ab|---------------------------------------------|
Eb|---------------------------------------------|

eb|--3--5--8--7--7--7--8p7-7--10--10-10-10-----|
Bb|--3--5--8--8--8--8--8---8--8---8--8--8------|
Gb|--0--0--0--0--0--0--0---0--0---0--0--0------|
Db|--------------------------------------------|
Ab|--------------------------------------------|
Eb|--------------------------------------------|

eb|--3--5--8--7--7--7--8p7-7--8p7-7-7-----------|
Bb|--3--5--8--8--8--8--8---8--8---8-8-----------|
Gb|--0--0--0--0--0--0--0---0--0---0-0-----------|
Db|---------------------------------------------|
Ab|---------------------------------------------|
Eb|---------------------------------------------|

eb|--3--5--8--7--7--7--8p7-7--10-----|
Bb|--3--5--8--8--8--8--8---8--8------|
Gb|--0--0--0--0--0--0--0---0--0------|
Db|----------------------------------|
Ab|----------------------------------|
Eb|----------------------------------|

Again I havent figured out the slide part but will post it when i do
eb|-----------3-3-3-3--3---------------3-3-3-3--------------3-3-3-3--3\5--3-|
Bb|--1-1-1-1--3-3-3-3----3----1-1-1-1--3-3-3-3-----1-1-1-1--3-3-3-3--3\5--3-|
Gb|--2-2-2-2---------------0--2-2-2-2----------2b--2-2-2-2------------------|
Db|--3-3-3-3------------------3-3-3-3--------------3-3-3-3------------------|
Ab|--3-3-3-3--2-2-2-2---------3-3-3-3--2-2-2-2-----3-3-3-3--2-2-2-2---------|
Eb|-----------3-3-3-3------------------3-3-3-3--------------3-3-3-3---------|

eb|-----------3-3-3-3--3---------------3-3-3-3--------------3-3-3-3--3\5----|
Bb|--1-1-1-1--3-3-3-3----3----1-1-1-1--3-3-3-3-----1-1-1-1--3-3-3-3--3\5----|
Gb|--2-2-2-2---------------0--2-2-2-2----------2b--2-2-2-2------------------|
Db|--3-3-3-3------------------3-3-3-3--------------3-3-3-3------------------|
Ab|--3-3-3-3--2-2-2-2---------3-3-3-3--2-2-2-2-----3-3-3-3--2-2-2-2---------|
Eb|-----------3-3-3-3------------------3-3-3-3--------------3-3-3-3---------|

| /  slide up
| \  slide down
| h  hammer-on
| p  pull-off
| ~  vibrato
| +  harmonic
| x  Mute note
===============================================================================
Suggest correction
comments
print report bad tab
1 comment total.
0 reply
hmf 10 wrote on June 1 2009, 03:38 pm

nice tab man i play the intro differently but yourse work to:P

guest
You may want to rate the tab now too:
select rating
Wanna post a correction for this tab? Suggest correction