Oops, an error
Loading. Please wait.

Same Damn Life Tab

version 1
version 1

Whole song

Interactive

22,043 views 69 this week
6 commentsread comments
1 2 3 4 5
accurate
x 13
add to favorites
launch autoscroll
font size
0
reset
how to read this tab
guitar tuner
Autoscroll
slow
fast
+/-
esc
set tempo
stop
Help us to improve Ultimate-Guitar.com Take our survey!
×
Author
Difficulty
Tuning
intermediate
C G C F A D
-------------------------------------------------------------------------------
                             Same Damn Life - Seether
-------------------------------------------------------------------------------

Tabbed by: edfen7
E-mail: edfen7@gmail.com

Tuning: Drop C

Verse
D|--------------------------------------------------------------------------------------|
A|--------------------------------------------------------------------------------------|
F|--------------------------------------------------------------------------------------|
C|--------------------------------------------------------------------------------------|
G|--------------------------------------------------------------------------------------|
C|-5s10-10-10--5s10-10-10--5s10-10-10--5s10-10-9-7-5-7-7--2s7-7-7--2s7-7-7--2s7-7-5-7-9-|


Chorus
D|---------------------------------------------------------------------------|
A|---------------------------------------------------------------------------|
F|---------------------------------------------------------------------------|
C|--12---10---14---12--10-12-10-12-10----------------------------------------|
G|--12---10---14---12--10-12-10-12-10----------------------------------------|
C|--12---10---14---12--10-12-10-12-10----------------------------------------|


Breakdown

D|------------------------------------------------------------------------|
A|------------------------------------------------------------------------|
F|--------------------------------------------------------------12--10-8--|
C|--10-8-10-8-13-8--10-8-10-8-13-8--10-8-10-8-13-8--10-8-10-8---x---x--x--|
G|--10-8-10-8-13-8--10-8-10-8-13-8--10-8-10-8-13-8--10-8-10-8---10--8--6--|
C|--10-8-10-8-13-8--10-8-10-8-13-8--10-8-10-8-13-8--10-8-10-8-------------|

D|------------------------------------------------------------------------|
A|------------------------------------------------------------------------|
F|------------------------------------------------------------------------|
C|--10-8-10-8-13-8--10-8-10-8-13-8--10-8-10-8-13-8--10-8-10-8--8-8-9------|
G|--10-8-10-8-13-8--10-8-10-8-13-8--10-8-10-8-13-8--10-8-10-8--8-8-9------|
C|--10-8-10-8-13-8--10-8-10-8-13-8--10-8-10-8-13-8--10-8-10-8--8-8-9------|

************************************
Suggest correction
comments
print report bad tab
6 comments total. Showing first comments.
0 reply
forgottenbeing 10 wrote on December 6 2014, 05:48 pm

Pretty good. I played this while listening to the song, and most of it seems right. It sounded like the Breakdown could use a bit of work, though.

0 reply
raptorsalad 12 wrote on April 15 2015, 12:43 pm

What's here is good, but it's missing the key change. The breakdown also feels off.

0 reply
kingadam 15 wrote on April 24 2015, 11:42 pm

Good tab! In the breakdown though it should be 8's instead of 0's and chords like so:


D|------------------------------------------------------------------------|
A|------------------------------------------------------------------------|
F|--------------------------------------------------------------12--10-8--|
C|--10-8-10-8-13-8--10-8-10-8-13-8--10-8-10-8-13-8--10-8-10-8---x---x--x--|
G|--10-8-10-8-13-8--10-8-10-8-13-8--10-8-10-8-13-8--10-8-10-8---10--8--6--|
C|--10-8-10-8-13-8--10-8-10-8-13-8--10-8-10-8-13-8--10-8-10-8-------------|

D|------------------------------------------------------------------------|
A|------------------------------------------------------------------------|
F|------------------------------------------------------------------------|
C|--10-8-10-8-13-8--10-8-10-8-13-8--10-8-10-8-13-8--10-8-10-8--8-8-9------|
G|--10-8-10-8-13-8--10-8-10-8-13-8--10-8-10-8-13-8--10-8-10-8--8-8-9------|
C|--10-8-10-8-13-8--10-8-10-8-13-8--10-8-10-8-13-8--10-8-10-8--8-8-9------|

guest
You may want to rate the tab now too:
select rating
Wanna post a correction for this tab? Suggest correction