Oops, an error
Loading. Please wait.

Same Damn Life tab

version 2
version 2

Whole song

Interactive

by Seether
4,605 views 42 this week
no commentswrite comment
1 2 3 4 5
x 9
add to favorites
×
Save as Personal and add changes to this tab that will be seen only by you. Learn more ›
×
You can save this tab as Personal to edit and correct it or add notes. All changes will be seen only by you. Learn more »
launch autoscroll
font size
0
reset
how to read this tab
guitar tuner
edit
Autoscroll
slow
fast
+/-
esc
set tempo
stop
Album: Isolate and Medicate 2014
play bottom 3 strings
Thanks to Edfen7 for parts of this tab

Verse
D|---------------------------------------------------------------------------------|
A|---------------------------------------------------------------------------------|
F|---------------------------------------------------------------------------------|
C|5s10-10---5s10-10---5s10-10---5s10-9-7-5-7-7--2s7-7---2s7-7---2s7-5-7-9-10-10----|
G|5s10-10---5s10-10---5s10-10---5s10-9-7-5-7-7--2s7-7---2s7-7---2s7-5-7-9-10-10----|
C|5s10-10---5s10-10---5s10-10---5s10-9-7-5-7-7--2s7-7---2s7-7---2s7-5-7-9-10-10----|x5


Chorus
D|---------------------------------------------------|
A|---------------------------------------------------|
F|---------------------------------------------------|
C|--12-12-12-12-12-12-12-12-10-10-10-10-10-10-10-10--|
G|--12-12-12-12-12-12-12-12-10-10-10-10-10-10-10-10--|
C|--12-12-12-12-12-12-12-12-10-10-10-10-10-10-10-10--|

D|---------------------------------------------------|
A|---------------------------------------------------|
F|---------------------------------------------------|
C|--14-14-14-14-14-14-14-14-12-12-12-12-12-10-12-10--|
G|--14-14-14-14-14-14-14-14-12-12-12-12-12-10-12-10--|
C|--14-14-14-14-14-14-14-14-12-12-12-12-12-10-12-10--|x2

verse x5

chorus x4


Breakdown
D|-------------------------------------------------------------------------|
A|-------------------------------------------------------------------------|
F|---------------------------------------------------------------12-10-8---|
C|--10-8-10-8-13-8--10-8-10-8-13-8--10-8-10-8-13-8--8-10-8-10-8--x--x--x---|
G|--10-8-10-8-13-8--10-8-10-8-13-8--10-8-10-8-13-8--8-10-8-10-8--10-8--6---|
C|--10-8-10-8-13-8--10-8-10-8-13-8--10-8-10-8-13-8--8-10-8-10-8------------|

D|-------------------------------------------------------------------------|
A|-------------------------------------------------------------------------|
F|-------------------------------------------------------------------------|
C|--10-8-10-8-13-8--10-8-10-8-13-8---10-8-10-8-13-8--10-8-10-8----8-8-9----|
G|--10-8-10-8-13-8--10-8-10-8-13-8---10-8-10-8-13-8--10-8-10-8----8-8-9----|
C|--10-8-10-8-13-8--10-8-10-8-13-8---10-8-10-8-13-8--10-8-10-8----8-8-9----|

chorus x4
breakdown x2
Suggest correction
Creating personal tab
Creating personal tab
You can edit any tab online and save it as your Personal.

You can edit, replace or remove any tab part or add personal notes – all changes will be seen only by you.

Personal tabs can be accessed anytime from any device, even offline.
Learn more »
comments
print report bad tab
guest
You may want to rate the tab now too:
select rating
Wanna post a correction for this tab? Suggest correction