Oops, an error
Loading. Please wait.

Simplest Mistake Bass Tab

version 1
version 1

Whole song

Interactive

487 views 1 this week
no commentswrite comment
1 2 3 4 5
3 more votes to show rating
add to favorites
launch autoscroll
font size
0
reset
guitar tuner
Autoscroll
slow
fast
+/-
esc
set tempo
stop
Help us to improve Ultimate-Guitar.com Take our survey!
×
Author
Difficulty
intermediate
Seether - Simplest mistake
Album: Karma And Effect

bass tab

by : doky 2007
taquilleros_de_sudamerica_maroyu_el_grupo_tropical_del_momento@hotmail.com

5-stringed bass
G D A E B

   INTRO/BREAK
G-|-----------|---|-----------|
D-|-----------|---|---------4-|
A-|-----4-2p0-|---|-----4-2---|
E-|---4-------|---|---4-------|
B-|-2---------|---|-2---------|
       x3       +      x1                                                      

   VERSO
G-|------------------------|
D-|------------------------|
A-|------------9\---7\---6-|
E-|----------7----5----4---|
B-|-222-2-22---------------|
                                                                              

   CORO
G-|-------------------------|
D-|-------------------------|
A-|-------------------------|
E-|-------5-5-5-------------|
B-|-2-2-2-------5-5-5-3-3-3-|
                                                                              

   MIDDLE
G-|------------------------------------------|
D-|------------------------------------------|
A-|------------------------------------------|
E-|------------------------------------------|
B-|-222-2-22-222-2-2-2-222-2-2-2-2/4-4\5-5\3-|
                                                                              

   FIN
G-|---------------------|
D-|---------------------|
A-|---------------------|
E-|------5----4----3----|
B-|-2-------------------|

Le mando salutaciones Al Hebert Mendoza que es batero de la banda donde
toco y este cuate toca bien a lo taaaaara pues ademas que llega tarde a 
los ensayos pues, creo que se queda jugando dota contra El Pipocas.

doky2007
                                                                              

Suggest correction
Give kudos to tab author, rate the tab!
1 2 3 4 5
comments
print report bad tab
guest
You may want to rate the tab now too:
select rating
Wanna post a correction for this tab? Suggest correction