Oops, an error
Loading. Please wait.

Simplest Mistake Bass Tab

version 2
version 2

Whole song

Interactive

855 views 3 this week
no commentswrite comment
1 2 3 4 5
3 more votes to show rating
add to favorites
launch autoscroll
font size
0
reset
guitar tuner
Autoscroll
slow
fast
+/-
esc
set tempo
stop
Help us to improve Ultimate-Guitar.com Take our survey!
×
Author
“Simplest Mistake”

Intro	x4
G |---------------------------------------------|
D |-----------------------------------------4---|
A |---2-4--3-----2-4--3----2-4--3----2-4--3-----|
Db|--0---0---5--0---0--5--0---0--5--0---0-------|


Verse  0:24   x4
G |-------------------------------|
D |--------------7---5---3--------|
A |------------9---7---5---3------|
Db|--0-0-0-0-0--------------------|


Chorus A  0:45                 1st       2nd
G |---------------------------------|-------------|-----------|
D |o--------------------------------|----------4--|----------o|
A |o----2-4--3----2-4--3----2-4--3--|---2-4---3---|----------o|
Db|----0---0--5--0---0--5--0---0--5-|--0—---0-----|--00-0-0---|


Verse  0:55 x4

Intro	1:16  x2

Chorus B  1:27  x3
G |---------------------------|
D |---------------------------|
A |------7~7~-2~2~-0~0~-0h2---|
Db|-0~0~----------------------|


Chorus A  1:48

Verse  1:58   x4

Intro  2:20   x2

Chorus B  2:31  x4

Bridge x4
G |--------------------------------------------------------|
D |--------------------------------------------------------|
A |--------------------------------------------2h3-5h6-8h9-|
Db|-0-0-0-0-0-0---0-0-0-0-0-0-0---0-0-0-0-0-0--------------|

G |--------------------------------------------------------|
D |--------------------------------------------------------|
A |--------------------------------------------4p3-6p5-9p8-|
Db|-0-0-0-0-0-0---0-0-0-0-0-0-0---0-0-0-0-0-0--------------|

Intro  3:37  x2

Chorus B  3:48  x8

Outro  4:30                  x11
G |------------------------------|--------------|
D |------------------------------|--------------|
A |------------------------------|--------------|
Db|--11-00-9-00-7-00-5-00-000343-|-end-on-0~~~--|
Suggest correction
Give kudos to tab author, rate the tab!
1 2 3 4 5
comments
print report bad tab
guest
You may want to rate the tab now too:
select rating
Wanna post a correction for this tab? Suggest correction