Oops, an error
Loading. Please wait.

Simplest Mistake Tab

version 2
version 2

Whole song

Interactive

5,865 views 12 this week
3 commentsread comments
1 2 3 4 5
accurate
x 4
add to favorites
launch autoscroll
font size
0
reset
how to read this tab
guitar tuner
Tab Pro tools
  • play this tab
  • loop segment
  • change instrument
  • show fretboard
  • metronome
×
Best way to learn
"Simplest Mistake"
Autoscroll
slow
fast
+/-
esc
set tempo
stop
Seether
"Simplest Mistake"
Karma and Effect

Tuning:Drop D tuned down 1/2 step (Db)

Intro:
Guitar 1

Eb------------------------------------------------------------|
Bb------------------------------------------------------------|
Gb------------------------------------------------------------|(4x)
Db------------------------------------------------------5-----|
Ab------5---3-0-------5---3-0-------5---3-0-------5---3-------|
Eb--0-3---0-------0-3---0-------0-3---0-------0-3---0---------|

Intro
Guitar 2:

Eb--10-10-10-10-10-10-10-10-10-12b----------------------------|
Bb------------------------------------------------------------|
Gb------------------------------------------------------------|(2x)
Db------------------------------------------------------------|
Ab------------------------------------------------------------|
Eb------------------------------------------------------------|

Verse:

Eb------------------------------------------------------------|
Bb------------------------------------------------------------|
Gb------------------------------------------------------------|
Db------------------------------------------------------------|
Ab-------0---------0---------0---------0----------------------|
Eb-000-000---000-000---000-000---000-000----------------------|

Intro

Verse

Intro

Chorus:

Eb------------------------------------------------------------|
Bb------------------------------------------------------------|
Gb------------------------------------------------------------|(4x)
Db-0--0-0---8--8-8---3--3-3---1--1-1-1-3----------------------|
Ab-0--0-0---8--8-8---3--3-3---1--1-1-1-3----------------------|
Eb-0--0-0---8--8-8---3--3-3---1--1-1-1-3----------------------|

Intro

Verse

Intro

Chorus

Bridge:

Eb------------------------------------------------------------|
Bb------------------------------------------------------------|
Gb------------------------------------------------------------|
Db------------------------------------------------------------|(8x)
Ab-------0--------0--------0--0-22-33-5-----------------------|
Eb-000-000--000-000--000-000--0-22-33-5-----------------------|

Intro

Chorus

Outro:

Eb------------------------------------------------------------|
Bb------------------------------------------------------------|
Gb------------------------------------------------------------|
Db-7xx--3xx---------------------------------------------------|(12x)
Ab-5xx--1xx--7xx--5xx--333-5-3-2------------------------------|
Eb-----------7xx--5xx--333-5-3-2------------------------------|


The end.
comments
print report bad tab
3 comments total.
0 reply
FENDER785 wrote on February 23 2006, 08:35 pm

great tab

0 reply
crazymettal666 wrote on August 25 2006, 05:29 pm

dude awsome tab but i think the whole intro riff is suposed to be in power chords

0 reply
BigBalls17 wrote on April 3 2015, 12:30 pm

the intro is
Eb---------------------------------------------------------------|
Bb---------------------------------------------------------------|
Gb---------------------------------------------------------------|(4x)
Db---------------------------------------------------------5-----|
Ab------5---3---------5----3----------5---3----------5---3-------|
Eb--0-3---0---5----0-3---0---5-----0-3---0--5-----0-3--0---------|

and the bridge is something like that

Eb------------------------------------------------------------|
Bb------------------------------------------------------------|
Gb------------------------------------------------------------|
Db------------------------------------------------------------|
Ab-------0--------0--------0--0-22-33-5-----------------------|
Eb-000-000--000-000--000-000--0-22-33-5-----------------------|

the second time
Eb------------------------------------------------------------|
Bb------------------------------------------------------------|
Gb------------------------------------------------------------|
Db------------------------------------------------------------|
Ab-------0--------0--------0--5h6-3h5-2h3---------------------|
Eb-000-000--000-000--000-000--5h6-2h5-2h3---------------------|

I want to post or [tab]
guest
You may want to rate the tab now too:
select rating
Please do not post tabs as comments. Select "correction" instead!