Oops, an error
Loading. Please wait.

Six Gun Quota Bass Tab

version 1
version 1

Whole song

Interactive

1,722 views 1 this week
no commentswrite comment
1 2 3 4 5
3 more votes to show rating
add to favorites
launch autoscroll
font size
0
reset
guitar tuner
Autoscroll
slow
fast
+/-
esc
set tempo
stop
Help us to improve Ultimate-Guitar.com Take our survey!
×
Author
"Six Gun Quota"

Tuning: C, G, C, F

Intro
|------------------------------------------------|
|---------3-3-3-----5--------------3-3-3---------|
|-5-5-3-0-------5-7---6-5--5-5-3-0-----------5-7-|
|----------------------------------------5-7-----|

Verse
|-------------------------|
|---------3-3-3-----5-----|
|-5-5-3-0-------5-7---6-5-|
|-------------------------|

Pre-Chorus
|--------------------------|
|------------3-3-3---------|
|----5-5-3-0-----------5-7-|
|-5~---------------5-7-----| x2

Chorus
|-------------------------------------------------------|
|-------------------------3-3-3-3-3-3-3-----------------|
|-3-3-3-3-3-3-5-5-5-5-5-5---------------3-3-3-3-7-7-7-7-|
|-------------------------------------------------------|

Verse 2 (repeat until pre-chorus)
|-------------------|
|-------------------|
|-------------------|
|-0-0-0-0-0-0-0-0-0-|

Pre-Chorus
Chorus

Bridge x4
|-----------------------------------|
|-----------------------------------|
|-0-0-0-0-0-0-4-4-4-4-4-7-7-7-7-7-7-|
|-----------------------------------|

Chorus

Intro
Suggest correction
Give kudos to tab author, rate the tab!
1 2 3 4 5
comments
print report bad tab
guest
You may want to rate the tab now too:
select rating
Wanna post a correction for this tab? Suggest correction