Oops, an error
Loading. Please wait.

Six Gun Quota Tab

version 1
version 1

Whole song

Interactive

6,422 views 6 this week
no commentswrite comment
1 2 3 4 5
excellent!
x 4
add to favorites
launch autoscroll
font size
0
reset
how to read this tab
guitar tuner
Autoscroll
slow
fast
+/-
esc
set tempo
stop
Help us to improve Ultimate-Guitar.com Take our survey!
×
Difficulty
Tuning
novice
E A D G B E
-------------------------------------------------------------------------------
                             Six Gun Quota - Seether
-------------------------------------------------------------------------------
Email:weebo02@msn.com

Tuning: Db Ab Db Gb Bb Eb

 *Intro*
e|----------------------------|----------------------------|
B|----------------------------|----------------------------|
G|------------5--5-5---4-5-4--|------------5--5-5---4-5-10-|
D|-7--7-6---------------------|-7--7-6---------------------|  x2
A|-5--5-5-----3--3-3-0-2-3-2--|-5--5-5-----3--3-3-0-2-3-8--|
E|-0--0-0--0------------------|-0--0-0--0------------------| 
                               


 *Verse*
e|---------------5-----------------------|
B|-3-------------5------3----------------|
G|-2--------------------2----------------|
D|-0--------------------0----------------|  x2
A|---------------------------------------|
E|---------------------------------------|

e|---------------------------------------------------------------|
B|---------------------------------------------------------------|
G|---------------------------------------------5--5-5---4-5-10---|
D|----------------------------------7--7-6-----------------------|
A|-3-3-3-3-3-3-3-3-3-3-3-3-3-3-3-3--5--5-5-----3--3-3-0-2-3-8----|
E|-3-3-3-3-3-3-3-3-3-3-3-3-3-3-3-3--0--0-0--0--------------------|

e|---------------------------------------------------------------|
B|---------------------------------------------------------------|
G|---------------------------------------------5-----------------|
D|----------------------------------7--7-6-----------------------|
A|-3-3-3-3-3-3-3-3-3-3-3-3-3-3-3-3--5--5-5-----3-----------------|
E|-3-3-3-3-3-3-3-3-3-3-3-3-3-3-3-3--0--0-0--0--------------------|


 *Chorus*
  Guitar 1
e|----------------------------------------------------------------------|
B|----------------------------------------------------------------------|
G|-------------------------------------------------7-7-7-7-10-10-10-10--|
D|---------------------------------5-5-5-5-5-5-5-5----------------------|
A|-0-0-0-0-0-0-0-0-3-3-3-3-3-3-3-3-3-3-3-3-3-3-3-3-5-5-5-5--8--8--8--8--|
E|-0-0-0-0-0-0-0-0-3-3-3-3-3-3-3-3--------------------------------------|
  Guitar 2                                                                 x2
e|--------------------------------------------------------13-10---------|       
B|-------10-----------------------------10------------------------------|
G|-------12fb------------10-------------12fb----------------------------|
D|--------------------------12------------------------------------------|
A|----------------------------------------------------------------------|
E|----------------------------------------------------------------------|


 *Interlude*
  Guitar 1
e|-10---12/13---15-13\12--10\8---10/12\10-10---12/13---15-13\12--10\8----5--|
B|--------------------------------------------------------------------------|
G|--------------------------------------------------------------------------|
D|--------------------------------------------------------------------------|
A|--------------------------------------------------------------------------|
E|--------------------------------------------------------------------------|
  Guitar 2
e|--------------------------------------------------------------------------|
B|--------------------------------------------------------------------------|
G|--------------------------------------------------------------------------|
D|--------------------------------------------------------------------------|
A|-0-------5--------8---------------------0--------5--------8---------------|
E|-0-------5--------8---------------------0--------5--------8---------------|

 
  Guitar 1
e|-12--10/12/13---15--13---12---10---8----12---10/13---15--13--12--10--8--5-|
B|--------------------------------------------------------------------------|
G|--------------------------------------------------------------------------|
D|--------------------------------------------------------------------------|
A|--------------------------------------------------------------------------|
E|--------------------------------------------------------------------------|
  Guitar 2
e|--------------------------------------------------------------------------|
B|--------------------------------------------------------------------------|
G|--------------------------------------------------------------------------|
D|--------------------------------------------------------------------------|
A|-0--------5--------8---------------------0--------5--------8--------------|
E|-0--------5--------8---------------------0--------5--------8--------------|


after the interlude he plays this without distortion before going back 
into the regular chorus
e|------0-------------------------------------------------------|
B|-3------3------------1---1-1---1----3p1---1-------------------|
G|-2-------------------2---2-2---0----------0-------------------|
D|-0-0----------0--3---3---3-3---2----------2---5---------------|
A|-------------------------------3--3-----3-3---5---------------|
E|----------------------------------------------5---------------|

  *Ending*
e|-----------------------------|
B|-----------------------------|
G|------------5--5-5---4-5-4---|
D|-7--7-6-----5--5-5---4-5-4---|  x3
A|-5--5-5-----3--3-3-0-2-3-2---|
E|-0--0-0--0-------------------|

e|-----------------------------|
B|-----------------------------|
G|------------5----------------|
D|-7--7-6-----5----------------|
A|-5--5-5-----3----------------|
E|-0--0-0--0-------------------|

Hope this tab helps.  Good luck.


| /  slide up
| \  slide down
| h  hammer-on
| p  pull-off
| ~  vibrato
| +  harmonic
| x  Mute note
===============================================================================
Suggest correction
comments
print report bad tab
guest
You may want to rate the tab now too:
select rating
Please do not post tabs as comments. Select "correction" instead!