Oops, an error
Loading. Please wait.

Six Gun Quota Tab

version 2
version 2

Whole song

Interactive

13,135 views 12 this week
2 commentsread comments
1 2 3 4 5
excellent!
x 5
add to favorites
launch autoscroll
font size
0
reset
how to read this tab
guitar tuner
Tab Pro tools
  • play this tab
  • loop segment
  • change instrument
  • show fretboard
  • metronome
×
Best way to learn
"Six Gun Quota"
Autoscroll
slow
fast
+/-
esc
set tempo
stop
Contributor
Difficulty
Tuning
novice
D G C F A D
                                                            Six Gun Quota -Seether

Tabbed by:Travis
Email:tewells27@yahoo.com

Tuning:Db,Ab,Db,Gb,Bb,Eb


   Intro
e|----------------------------------------------------------------------------|
B|--3---3---3-------------------------------3---3--3--------------------------|
G|--2---2---1------5---5--5-----4/5--4------2---2--1------5--5-5--------------|
D|--0---0---0---0------------0----------0---0---0--0--0-----------0-----------|
A|--0---0---0---0--3---3--3--0--2/3--2--0---0---0--0--0---3--3-3--0-----------|
E|--0---0---0---------------------------0---0---0--0--------------------------|

e|----------------------------------------------------------------------------|
B|----------------------------------------------------------------------------|
G|--4/5---10------------------------------------------------------------------|
D|----------------------------------------------------------------------------|
A|--2/3---8-------------------------------------------------------------------|
E|----------------------------------------------------------------------------|


  Verse
e|--0---------0---------------0-----------------------------------------------|
B|--3---------10\-------------3-----------------------------------------------|
G|--2---------9\--------------2-----------------------------------------------|
D|--0-------------------------0-----------------------------------------------|
A|--0-------------------------0-----------------------------------------------|
E|--0-------------------------0-----------------------------------------------|

    Did you ever think........

e|----------------------------------------------------------------------------|
B|-6-----------------3--3-3---------------------------------------------------|
G|-5-----------------2--2-1-----5--5-5-----4/5--10----------------------------|
D|-3--X13------------0--0-0--0----------0-------------------------------------|
A|-3-----------------0--0-0--0--3--3-3--0--2/3---8----------------------------|
E|-3-----------------0--0-0---------------------------------------------------|

     Did you ever think........

e|----------------------------------------------------------------------------|
B|-6-----------------3--3-3---------------------------------------------------|
G|-5-----------------2--2-1-----5b--------------------------------------------|
D|-3--X13------------0--0-0--0------0-----------------------------------------|
A|-3-----------------0--0-0--0--3b--0-----------------------------------------|
E|-3-----------------0--0-0---------------------------------------------------|


   Chorus Lead w/chorus effect

e|-------------------------------------------12---10--------------------------|
B|-------------8b---------------------8b--------------------------------------|
G|---7----7-----------9---7--7---7--------------------------------------------|
D|----------------------------------------------------------------------------|
A|----------------------------------------------------------------------------|
E|----------------------------------------------------------------------------|

    Chorus Rhy Gtr

e|----------------------------------------------------------------------------|
B|--3-------------------------------------------------------------------------|
G|--2-----5------5----------7---7---7/10--10--10------------------------------|
D|--0-X7--3-X7---5-X7-then----------------------------------------------------|
A|--0-----3------3----------5---5---5/8---8---8-------------------------------|
E|--0-----3-------------------------------------------------------------------|

   Bridge  Lead Gtr....Not going to put notes under Rhy not hard to figure out

e|--10---12--13----15-15---13-12---10/8--10/12--10---10---12-13---15-15--13---|
B|----------------------------------------------------------------------------|
G|----------------------------------------------------------------------------|
D|----------------------------------------------------------------------------|
A|----------------------------------------------------------------------------|
E|----------------------------------------------------------------------------|

e|--12--10/8--8\6--6/12---10-10h12--13///15--13--12\10----10\8----12--10--13---|
B|-----------------------------------------------------------------------------|
G|-----------------------------------------------------------------------------|
D|-----------------------------------------------------------------------------|
A|-----------------------------------------------------------------------------|
E|-----------------------------------------------------------------------------|

e|--15--15---13--12\10----10\8----8\------------------------------------------|
B|----------------------------------------------------------------------------|
G|----------------------------------------------------------------------------|
D|----------------------------------------------------------------------------|
A|----------------------------------------------------------------------------|
E|----------------------------------------------------------------------------|

   Bridge Rhy Fig

e|------0---------------------------------------------------------------------|
B|------3---------------------------------------------------------------------|
G|--2---2-------------7-------------------------------------------------------|
D|--0---0-----5-5--5--5---5/8-----------10-------------Repeat-----------------|
A|--0---------5-5--5--5---5/8---8--8--8--8-----8\-----------------------------|
E|--0---------5-5--5--5---5/8---8--8--8--8-----8\-----------------------------|


   Outro...I've burned down.....

e|-------0--------------------------------------------------------------------|
B|----------3----------------------------3------------------------------------|
G|--2-----------------5---5-x--0---------5--5---------7-----------------------|
D|--0-----------------3---3-x--0----5----5-----5--5---5-----------------------|
A|--0-----------3--3--3-----------3---3-----------3---5-----------------------|
E|--0-----------3--3----------------------------------5-----------------------|

Repeat Intro and end on C5


| /  slide up
| \  slide down
| h  hammer-on
| p  pull-off
| ~  vibrato
| +  harmonic
| x  Mute note
comments
print report bad tab
2 comments total.
-1 reply
rocker_jaryd wrote on August 11 2008, 03:13 pm

awesome tab!

+1 reply
Huffman wrote on September 21 2008, 09:24 pm

^^ luving the insiteful comment... i was hoping for ... w/e

I want to post or [tab]
guest
You may want to rate the tab now too:
select rating
Please do not post tabs as comments. Select "correction" instead!