Oops, an error
Loading. Please wait.

Stay And Play Tab

version 1
version 1

Whole song

Interactive

1,116 views 9 this week
no commentswrite comment
1 2 3 4 5
please rate
add to favorites
launch autoscroll
font size
0
reset
how to read this tab
guitar tuner
Autoscroll
slow
fast
+/-
esc
set tempo
stop
Help us to improve Ultimate-Guitar.com Take our survey!
×
Contributor
Difficulty
Tuning
novice
C# G# C# F# A# D#
----------------------------------------------------------------------------
                             STAY AND PLAY - Seether
----------------------------------------------------------------------------
Tabbed by:Josethejalapeno
Email: nice-beard@hotmail.com

Tuning: Drop D then down another half-step

Whole song except solo.

email me for mistakes.

UPDATE: I figured out what was wrong and I think the solo is correct; I'm 85% sure. 
it took so long to update it my computer was broke. Again, if there are any 
email me.

enjoy.

INTRO (Clean)

G#|------------------------------------------------------|
A#|------------------------------------------------------|
F#|---------------------------------------------7777-666-| X2
C#|-4--6--7-6------4--6--7-6-----4--6--7-6-6-6--7777-666-|
G#|-4--6--7-6------4--6--7-6-----4--6--7-6-6-6--5555-444-|
C#|-4--6--7-6------4--6--7-6-----4--6--7-6-6-6-----------|


Verse (Distorted)

G#|-------------------------------------------------------------------|
A#|-------------------------------------------------------------------|
F#|--------------------------------------------7777-666---------------| X4
C#|-2-2--6\7--6--2-2--6\7-6--2-2--6\7--6--2-2--7777-666---------------|
G#|-2-2--6\7--6--2-2--6\7-6--2-2--6\7--6--2-2--5555-444---------------|
C#|-2-2--6\7--6--2-2--6\7-6--2-2--6\7--6--2-2-------------------------|
    * *          * *         * *          * *

POST-CHORUS (Distorted)

G#|--------------------------------------------------------------------------|
A#|--------------------------------------------------------------------------|
F#|--------------------------------------------------------------------------| X2
C#|-44444444--999-88-88------------------------------------------------------|
G#|-44444444--999-88-88------------------------------------------------------|
C#|-44444444--999-88-88------------------------------------------------------|


CHORUS (Distorted)

G#|--------------------------------------------------------------------------|
A#|--------------------------------------------------------------------------|
F#|---------------7777-666---------------------------------------------------|X4
C#|-2-2-6\7-6-6-6-7777-666---------------------------------------------------|
G#|-2-2-6\7-6-6-6-5555-444---------------------------------------------------|
C#|-2-2-6\7-6-6-6------------------------------------------------------------|
    * *

After-Chorus

G#|------------|
A#|------------|
F#|------------|X4 *on 4th time let 4's ring out
C#|-5-5-5-4-4--|
G#|-5-5-5-4-4--|
C#|-5-5-5-4-4--|

Bridge (clean)

G#|-------------------------------------------------------------|
A#|-------------------------------------------------------------| * not exact amount of times
F#|--------------------------------------------------------7-6--|
C#|-2-2-2-2-2-2-2-2-2-2-2-2-2-2-2-2-2-2-2-2-2-2-2-2-2-2-2--7-6--|
G#|-2-2-2-2-2-2-2-2-2-2-2-2-2-2-2-2-2-2-2-2-2-2-2-2-2-2-2--5-4--|
C#|-2-2-2-2-2-2-2-2-2-2-2-2-2-2-2-2-2-2-2-2-2-2-2-2-2-2-2-------|
    * * * * * * * * * * * * * * * * * * * * * * * * * * *

Bridge 2 (slightly distorted)

G#|------------------------------------------------------------------------|
A#|------------------------------------------------------------------------|
F#|------------------------------------------------------------------------|
C#|-2-2----2-2----2-2----2-2-----------------------------------------------|
G#|-2-2----2-2----2-2----2-2-----------------------------------------------|
C#|-2-2----2-2----2-2----2-2-----------------------------------------------|
    x x    x x    x x    x x

SOLO:

G#|--------------------------------------------------------------------------|
A#|--------------------------------------------------------------------------| X2
F#|----h--------h-----h-----------h------------------------------------------|
C#|--16-18~---16-18-18-19--16~--16-18-18\14----------------------------------|
G#|--------------------------------------------------------------------------|
C#|--------------------------------------------------------------------------|


G#|--------------------------------------------------------------------------|
A#|---h--------h-----h-----------h-------------------------------------------|
F#|-17-19~---17-19-19-20--17~--17-19-19\15-----------------------------------| X2
C#|--------------------------------------------------------------------------|
G#|--------------------------------------------------------------------------|
C#|--------------------------------------------------------------------------|


End

G#|------------------------------------------------------------------------|
A#|------------------------------------------------------------------------|
F#|------------------------------------------------------------------------|
C#|-2-2-6\7-6--------------------------------------------------------------|
G#|-2-2-6\7-6--------------------------------------------------------------|
C#|-2-2-6\7-6--------------------------------------------------------------|

Song Order:

Intro
Verse
Post-chorus
Chorus
After-Chorus
Bridge x2
Verse
Post-Chorus
Chorus
After-Chorus
Solo
Bridge 2
Post-Chorus
Chorus
After-Chorus
End

************************************

| /   slide up
| \   slide down
| h   hammer-on
| p   pull-off
| ~   vibrato
| *   harmonic
| x   Mute note
| b   Bend
| pb  Pre-bend
| br  Bend release
| pbr Pre-bend release
| brb Bend release bend

************************************
Suggest correction new What's this?
You can suggest a correction to this tab. Community and Mods will review your correction and vote to approve or reject it.
comments
We did not receive enough feedback on this tab! Please rate:
print report bad tab
1 2 3 4 5
guest
You may want to rate the tab now too:
select rating
Please do not post tabs as comments. Select "correction" instead!