Oops, an error
Loading. Please wait.

Stoke The Fire tab

by Seether
1,013 views 60 this week
2 commentsread comments
1 2 3 4 5
x 6
add to favorites
×
Save as Personal and add changes to this tab that will be seen only by you. Learn more ›
×
You can save this tab as Personal to edit and correct it or add notes. All changes will be seen only by you. Learn more »
launch autoscroll
font size
0
reset
how to read this tab
guitar tuner
edit
Autoscroll
slow
fast
+/-
esc
set tempo
stop
About this tab version
I believe this is the first tab for this killer song. So theres that. Was this info helpful? Yes No
Song: Stoke the Fire
Artist: Seether
Album: Poison the Parish (2017)
Tuning: Drop D (DADGBE)
Tabbed by: Clay Delphia

(DISCLAIMER: In no way is this 100% correct. This is just what I interpret
the song to be played like.)

[Intro]
E|-----------------------------------------------------------------|
B|-----------------------------------------------------------------|
G|-----------------------------------------------------------------| 
D|-----------------------------------------------------------------| x2
A|-----------------------------------------------------------------|
D|-0h2-2-0h2-2-0h2-2-0h2-3--0h2-2-0h2-2-0h2-2-3p2-2p0--------------|

E|-----------------------------------------------------------------|
B|-----------------------------------------------------------------|
G|-----------------------------------------------------------------|
D|-0h2-2-0h2-2-0h2-2-0h2-3--0h2-2-0h2-2-0h2-2-3p2-2p0-0-0-0-0-0-0--|
A|-0h2-2-0h2-2-0h2-2-0h2-3--0h2-2-0h2-2-0h2-2-3p2-2p0-0-0-0-0-0-0--|
D|-0h2-2-0h2-2-0h2-2-0h2-3--0h2-2-0h2-2-0h2-2-3p2-2p0-0-0-0-0-0-0--|
Pm                                                    . . . . . .

E|-----------------------------------------------------------------|
B|-----------------------------------------------------------------|
G|-----------------------------------------------------------------|
D|-0h2-2-0h2-2-0h2-3--0h2-2-0h2-2-0h2-2-3p2-2p0--------------------|
A|-0h2-2-0h2-2-0h2-3--0h2-2-0h2-2-0h2-2-3p2-2p0--------------------|
D|-0h2-2-0h2-2-0h2-3--0h2-2-0h2-2-0h2-2-3p2-2p0--------------------|

[Verse 1]

E|-----------------------------------------------------------------|
B|-----------------------------------------------------------------|
G|-----------------------------------------------------------------| 
D|-0-2-2-2-0-2-2-2-0-2-2-2-0-2-3--0-2-2-2-0-2-2-2-0-2-2-2-3p2-2p0--| x2
A|-0-2-2-2-0-2-2-2-0-2-2-2-0-2-3--0-2-2-2-0-2-2-2-0-2-2-2-3p2-2p0--|
D|-0-2-2-2-0-2-2-2-0-2-2-2-0-2-3--0-2-2-2-0-2-2-2-0-2-2-2-3p2-2p0--|
Pm . . . . . . . . . . . .        . . . . . . . . . . . .

[Chorus 1]

E|-----------------------------------------------------------------|
B|-----------------------------------------------------------------|
G|-10-10-10-10-10-10-10-10-7-7-7-7-12-12-12------------------------| 
D|-8--8--8--8--8--8--8--8--5-5-5-5-10-10-10-0h2-2-0h2-2-0h2-2-0h2-3| x2
A|-8--8--8--8--8--8--8--8--5-5-5-5-10-10-10-0h2-2-0h2-2-0h2-2-0h2-3|
D|-8--8--8--8--8--8--8--8--5-5-5-5-10-10-10-0h2-2-0h2-2-0h2-2-0h2-3|



E|-----------------------------------------------------------------|
B|-----------------------------------------------------------------|
G|-10-10-10-10-10-10-10-10-7-7-7-7-12-12-12------------------------| 
D|-8--8--8--8--8--8--8--8--5-5-5-5-10-10-10------------------------| 
A|-8--8--8--8--8--8--8--8--5-5-5-5-10-10-10------------------------|
D|-8--8--8--8--8--8--8--8--5-5-5-5-10-10-10------------------------|


[Verse 2]

E|-----------------------------------------------------------------|
B|-----------------------------------------------------------------|
G|-----------------------------------------------------------------| 
D|-0-2-2-2-0-2-2-2-0-2-2-2-0-2-3--0-2-2-2-0-2-2-2-0-2-2-2-3p2-2p0--| x2
A|-0-2-2-2-0-2-2-2-0-2-2-2-0-2-3--0-2-2-2-0-2-2-2-0-2-2-2-3p2-2p0--|
D|-0-2-2-2-0-2-2-2-0-2-2-2-0-2-3--0-2-2-2-0-2-2-2-0-2-2-2-3p2-2p0--|
Pm . . . . . . . . . . . .        . . . . . . . . . . . .

[Chorus 2]

E|-----------------------------------------------------------------|
B|-----------------------------------------------------------------|
G|-10-10-10-10-10-10-10-10-7-7-7-7-12-12-12------------------------| 
D|-8--8--8--8--8--8--8--8--5-5-5-5-10-10-10-0h2-2-0h2-2-0h2-2-0h2-3| x2
A|-8--8--8--8--8--8--8--8--5-5-5-5-10-10-10-0h2-2-0h2-2-0h2-2-0h2-3|
D|-8--8--8--8--8--8--8--8--5-5-5-5-10-10-10-0h2-2-0h2-2-0h2-2-0h2-3|

E|-----------------------------------------------------------------|
B|-----------------------------------------------------------------|
G|-10-10-10-10-10-10-10-10-7-7-7-7-12-12-12------------------------| 
D|-8--8--8--8--8--8--8--8--5-5-5-5-10-10-10------------------------| 
A|-8--8--8--8--8--8--8--8--5-5-5-5-10-10-10------------------------|
D|-8--8--8--8--8--8--8--8--5-5-5-5-10-10-10------------------------|

[Bridge]
E|-----------------------------------------------------------------|
B|-----------------------------------------------------------------|
G|-----------------------------------------------------------------| 
D|---------------5h7-5/3----------------5h7-5/3--------------------| x2
A|---------------5h7-5/3----------------5h7-5/3--------------------|
D|-0-2--0-2--0-2-5h7-5/3--0-2--0-2--0-2-5h7-5/3--------------------|

E|-----------------------------------------------------------------|
B|-----------------------------------------------------------------|
G|-----------------------------------------------------------------| 
D|-0-2--0-2--0-2-5h7-5/3--0-2--0-2--0-2-5h7-5/3--------------------| x2
A|-0-2--0-2--0-2-5h7-5/3--0-2--0-2--0-2-5h7-5/3--------------------|
D|-0-2--0-2--0-2-5h7-5/3--0-2--0-2--0-2-5h7-5/3--------------------|


(This part was a bit tricky. It's after the riff and before the chorus.
 Just sounds like a wall of noise but this is what I could pick out.)

E|-0---------------------------------------------------------------|
B|-----5------------5----------------------------------------------|
G|-------7-----7-9----7--------------------------------------------| 
D|---------9------------9------------------------------------------| 
A|-----------------------------------------------------------------|
D|-----------------------------------------------------------------|

[Chorus 3]

E|-----------------------------------------------------------------|
B|-----------------------------------------------------------------|
G|-10-10-10-10-10-10-10-10-7-7-7-7-12-12-12------------------------| 
D|-8--8--8--8--8--8--8--8--5-5-5-5-10-10-10-0h2-2-0h2-2-0h2-2-0h2-3| x3
A|-8--8--8--8--8--8--8--8--5-5-5-5-10-10-10-0h2-2-0h2-2-0h2-2-0h2-3|
D|-8--8--8--8--8--8--8--8--5-5-5-5-10-10-10-0h2-2-0h2-2-0h2-2-0h2-3|

E|-----------------------------------------------------------------|
B|-----------------------------------------------------------------|
G|-10-10-10-10-10-10-10-10-7-7-7-7-12-12-12------------------------| 
D|-8--8--8--8--8--8--8--8--5-5-5-5-10-10-10------------------------| 
A|-8--8--8--8--8--8--8--8--5-5-5-5-10-10-10------------------------|
D|-8--8--8--8--8--8--8--8--5-5-5-5-10-10-10------------------------|

[Outro]

E|-----------------------------------------------------------------|
B|-----------------------------------------------------------------|
G|-----------------------------------------------------------------| 
D|---------------5h7-5/3----------------5h7-5/3--------------------| x2
A|---------------5h7-5/3----------------5h7-5/3--------------------|
D|-0-2--0-2--0-2-5h7-5/3--0-2--0-2--0-2-5h7-5/3--------------------|

E|-----------------------------------------------------------------|
B|-----------------------------------------------------------------|
G|-----------------------------------------------------------------| 
D|-0-2--0-2--0-2-5h7-5/3--0-2--0-2--0-2-5h7-5/3--------------------| x2
A|-0-2--0-2--0-2-5h7-5/3--0-2--0-2--0-2-5h7-5/3--------------------|
D|-0-2--0-2--0-2-5h7-5/3--0-2--0-2--0-2-5h7-5/3--------------------|

------------------------------------------------------------------------------

Tab Legend:
Pm = Palm Mute
/  = Slide
H  = Hammer on
P  = Pull off
Suggest correction
Creating personal tab
Creating personal tab
You can edit any tab online and save it as your Personal.

You can edit, replace or remove any tab part or add personal notes – all changes will be seen only by you.

Personal tabs can be accessed anytime from any device, even offline.
Learn more »
comments
print report bad tab
2 comments total.
0 reply
KevinSMW 10 May 16, 2017 12:15 PM

Great job man, I just learned this by ear and was going to post literally the same exact tab, but I see you beat me to it lol

+1 reply
Holybeer 20 Jul 09, 2017 08:51 AM

I would suggest a slight bend for the open on the bridge and the outro. :)

guest
You may want to rate the tab now too:
select rating
Wanna post a correction for this tab? Suggest correction