Oops, an error
Loading. Please wait.

Sympathetic Tab

version 1
version 1

Acoustic

Whole song

Interactive

6,127 views 3 this week
no commentswrite comment
1 2 3 4 5
please rate
add to favorites
launch autoscroll
font size
0
reset
how to read this tab
guitar tuner
Autoscroll
slow
fast
+/-
esc
set tempo
stop
Help us to improve Ultimate-Guitar.com Take our survey!
×
Author
Difficulty
Tuning
novice
D A D G B E
Band: Seether
 Song: Sympathetic
 Tuning: Drop D, down a half step C# G# C# F# A# D# or
                                  Eb Ab Db Gb Bb Eb
This is the acoustic version from the cd One cold Night I watched the dvd and listened 
ear to get the sounds.


 intro:
Gtr.1
 |-----0------0---| (x8)
 |---3---2---3--2-|
 |-2-------2------|
 |----------------|
 |----------------|
 |----------------|

Gtr.2
 |-----5---------10-------8------8--| Come in on the fourth of Gtr.1
 |---3-3------10-10-----8-8----8-8--|
 |-2---2----9----9----7---7--7---7--|
 |----------------------------------|
 |----------------------------------|
 |----------------------------------|

 Verse

Gtr.1
 |-0-------------| (x4)
 |-3-------------|
 |-2---4---------|
 |-0---4-----5---|
 |-0---2-----5---|
 |-0---------5---|

Gtr.2
 |-----5---------10-------8------8--| (x4)
 |---3-3------10-10-----8-8----8-8--|
 |-2---2----9----9----7---7--7---7--|
 |----------------------------------|
 |----------------------------------|
 |----------------------------------|


 Chorus
Gtr.1
 |-0-------------|(x2)
 |-3-------------|
 |-2---4---------|
 |-0---4---5-----|
 |-0---2---5-----|
 |-0-------5-----|

Gtr.2
 |-0-------------| (x2)
 |-3-------------|
 |-2---4-----7---|
 |-0---4-----5---|
 |-0---2-----5---|
 |-0---------5---|

Verse

Gtr.1
 |-0-------------| (x4)
 |-3-------------|
 |-2---4---------|
 |-0---4-----5---|
 |-0---2-----5---|
 |-0---------5---|

Gtr.2
 |-----5---------10-------8------8--| (x4)
 |---3-3------10-10-----8-8----8-8--|
 |-2---2----9----9----7---7--7---7--|
 |----------------------------------|
 |----------------------------------|
 |----------------------------------|

 Bridge(the same old feeling is taking over....)


 |-----------------|(x2)   |-----------------------------------|
 |-----------------|       |---------3/--10/--8~--3/--10/--8~--|
 |-4---7---7-------|       |---------2/---9/--7~--2/---9/--7~--|
 |-2---5---7---7---|       |-----------------------------------|
 |-2---5---5---7---|       |-----------------------------------|
 |-2---5-------7---|       |-----------------------------------|

Chorus (x2)
Gtr.1
 |---------------|
 |-3-------------|
 |-2---4---------|
 |-0---4---5-----|
 |-0---2---5-----|
 |-0-------5-----|

Gtr.2
 |-----5---------10-------8------8--|
 |---3-3------10-10-----8-8----8-8--|
 |-2---2----9----9----7---7--7---7--|
 |----------------------------------|
 |----------------------------------|
 |----------------------------------|

End on
Gtr.1, and Gtr.2
 |-0-----------|
 |-3-----------|
 |-2-----------|
 |-0-----------|
 |-0-----------|
 |-0-----------|

Any questions, comments, or corrections send them to bcrichmetalmaster@hotmail.com
Suggest correction
Give kudos to tab author, rate the tab!
1 2 3 4 5
comments
print report bad tab
guest
You may want to rate the tab now too:
select rating
Wanna post a correction for this tab? Suggest correction