Oops, an error
Loading. Please wait.

Sympathetic Tab

version 2
version 2

Acoustic

Whole song

Interactive

4,936 views 1 this week
1 commentread comment
1 2 3 4 5
please rate
add to favorites
launch autoscroll
font size
0
reset
how to read this tab
guitar tuner
Tab Pro tools
  • play this tab
  • loop segment
  • change instrument
  • show fretboard
  • metronome
×
Best way to learn
"Sympathetic"
Autoscroll
slow
fast
+/-
esc
set tempo
stop
Contributor
Song: "Sympathetic" Acoustic
Artist: Seether
Album:  One Cold Night (Live)2006
Tabbed By: Left-Behind

                    OK, this is the song "Sympathetic" by Seether. Easy song. Its also 
Its a great song. I'm sorry i know all the rhythm isn't right, but listen to the song and 
will get it. ENJOY!

INTRO
E|--------0--------------|
B|-----3-----3-----------|
G|--2----------2---------| x 24
D|-----------------------|
A|-----------------------|
D|-----------------------|

VERSE 1
E|--0--0--0--0--0--0--0--0--0--0--0--0--------------------------------------|
B|--3--3--3--3--3--3--0--0--0--0--0--0--------------------------------------|
G|--2--2--2--2--2--2--2--2--2--2--2--2--7--7--7--7--7--7--7--7--7--7--7--7--|
D|--------------------2--2--2--2--2--2--5--5--5--5--5--5--5--5--5--5--5--5--|
A|--------------------------------------5--5--5--5--5--5--5--5--5--5--5--5--|
D|--------------------------------------5--5--5--5--5--5--5--5--5--5--5--5--|
       x4

CHORUS
E|--0--0--0--0--------------------------------------------|
B|--3--3--3--3--------------------------------------------|
G|--2--2--2--2--4--4--4--4--4--4--7--7--7--7--7--7--7--7--|
D|--------------4--4--4--4--4--4--5--5--5--5--5--5--5--5--|
A|--------------2--2--2--2--2--2--5--5--5--5--5--5--5--5--|
D|--------------------------------5--5--5--5--5--5--5--5--|
       x2

VERSE 2
E|--0--0--0--0--0--0--0--0--0--0--0--0--------------------------------------|
B|--3--3--3--3--3--3--0--0--0--0--0--0--------------------------------------|
G|--2--2--2--2--2--2--2--2--2--2--2--2--7--7--7--7--7--7--7--7--7--7--7--7--|
D|--------------------2--2--2--2--2--2--5--5--5--5--5--5--5--5--5--5--5--5--|
A|--------------------------------------5--5--5--5--5--5--5--5--5--5--5--5--|
D|--------------------------------------5--5--5--5--5--5--5--5--5--5--5--5--|
      x4

CHORUS
E|--0--0--0--0--------------------------------------------|
B|--3--3--3--3--------------------------------------------|
G|--2--2--2--2--4--4--4--4--4--4--7--7--7--7--7--7--7--7--|
D|--------------4--4--4--4--4--4--5--5--5--5--5--5--5--5--|
A|--------------2--2--2--2--2--2--5--5--5--5--5--5--5--5--|
D|--------------------------------5--5--5--5--5--5--5--5--|
       x4

BRIDGE
E|--------------------------------------------------------------------------|
B|--------------------------------------------------------------------------|
G|--------------------------------------------------------------------------|
D|--2--2--2--2--2--2--5--5--5--5--5--5--0--0--0--0--0--0--7--7--7--7--7--7--|
A|--2--2--2--2--2--2--5--5--5--5--5--5--0--0--0--0--0--0--7--7--7--7--7--7--|
D|--2--2--2--2--2--2--5--5--5--5--5--5--0--0--0--0--0--0--7--7--7--7--7--7--|
       x4 (on 4th time, end on the OPEN chord)


E|------------------------------------------------------------------|
B|------------------------------------------------------------------|
G|--14--14--14--14--14------14------12------12------12------12------|
D|--12--12--12--12------12------12------12------12------12------12--|
A|------------------------------------------------------------------|
D|------------------------------------------------------------------|

E|----------------------------------------------------|
B|----------------------------------------------15\0--|
G|--14--14--14--14--14------14------12------12--------|
D|--12--12--12--12------12------12------12------------|
A|----------------------------------------------------|
D|----------------------------------------------------|

This part is played during the part above. Its two strums. Listen to song. :D
E|-----------------|
B|-----3-----3-----|
G|-----2-----2-----|
D|-----0-----0-----|
A|-----0-----0-----|
D|-----0-----0-----|

CHORUS/END
E|--0--0--0--0----------------------------------------------------------------|
B|--3--3--3--3--------------------------------------------------------------3-|
G|--2--2--2--2--4--4--4--4--4--4--7--7--7--7--7--7--7--7--------------------2-|
D|--------------4--4--4--4--4--4--5--5--5--5--5--5--5--5--on last time end--0-|
A|--------------2--2--2--2--2--2--5--5--5--5--5--5--5--5--------------------0-|
D|--------------------------------5--5--5--5--5--5--5--5--------------------0-|
        x6

left-behind-133@hotmail.com - for questions.
comments
We did not receive enough feedback on this tab! Please rate:
print report bad tab
1 2 3 4 5
1 comment total.
0 reply
glycius wrote on January 30 2012, 06:55 pm

oi mate, great work...hard to believe nobody else has commented on this...this is the only accurate version i could find on the web of the one cold night performance

I want to post or [tab]
guest
You may want to rate the tab now too:
select rating
Please do not post tabs as comments. Select "correction" instead!