Oops, an error
Loading. Please wait.

Sympathetic Bass Tab

version 2
version 2

Whole song

Interactive

1,941 views 3 this week
no commentswrite comment
1 2 3 4 5
1 last vote to show rating
add to favorites
launch autoscroll
font size
0
reset
guitar tuner
Autoscroll
slow
fast
+/-
esc
set tempo
stop
Help us to improve Ultimate-Guitar.com Take our survey!
×
Author
"Sympathetic" - Seether

STANDARD TUNING

Intro
|----7-------2---------------------|X2
|--7-------4--------5-------5/7-5--|
|5-------2--------5-------5--------|
|---------------3-------3----------|

Verse
|----7-------2---------------------|
|--7-------4---------5------5/7-5--|
|5-------2---------5------5--------|X4
|----------------3------3----------|

Chorus
|---------------------------------------------------------------|
|---------------------------------------------------------------|
|5-5-5-5-5-5-5-5/2-2-2-2-2-3-2-0--------------------------------|X2
|--------------------------------3-3-3-3-3-3-3-3-3-3-3-3-3-3-3-3|

Verse
|----7-------2------5--------------|
|--7-------4------5---------5/7-5--|
|5-------2------3---------5--------|X4
|-----------------------3----------|

Chorus
|---------------------------------------------------------------|
|---------------------------------------------------------------|X4
|5-5-5-5-5-5-5-5/2-2-2-2-2-3-2-0--------------------------------|
|--------------------------------3-3-3-3-3-3-3-3-3-3-3-3-3-3-3-3|

"The Same Old Feelings, Are Taking Over"
|---------------------------------------------------------------|
|---------------------------------------------------------------|
|2-2-2-2-2-2-2-2-----------------5-5-5-5-5-5-5-5----------------|X3
|----------------3-3-3-3-3-3-3-3-----------------5-5-5-5-5-5-5-5|

|---------------------------------|------|-------------------|
|---------------------------------|------|-------------------|
|2-2-2-2-2-2-2-2-----------------5|------|-5-----5--3--2-----|
|----------------3-3-3-3-3-3-3-3--|------|-------------------|

Chorus
|---------------------------------------------------------------|
|---------------------------------------------------------------|X6
|5-5-5-5-5-5-5-5/2-2-2-2-2-3-2-0--------------------------------|
|--------------------------------3-3-3-3-3-3-3-3-3-3-3-3-3-3-3-3|
Suggest correction
Give kudos to tab author, rate the tab!
1 2 3 4 5
comments
print report bad tab
guest
You may want to rate the tab now too:
select rating
Wanna post a correction for this tab? Suggest correction