Oops, an error
Loading. Please wait.

Sympathetic Bass Tab

version 3
version 3

Whole song

Interactive

259 views 1 this week
no commentswrite comment
1 2 3 4 5
3 more votes to show rating
add to favorites
launch autoscroll
font size
0
reset
guitar tuner
Autoscroll
slow
fast
+/-
esc
set tempo
stop
Help us to improve Ultimate-Guitar.com Take our survey!
×
Author
Tuning
C G C F A D
Intro
|--2--4--9--------------------------------------| x2
|------------2--4--9----0--4--7----0--4--7h9-7--|
|-----------------------------------------------|
|-----------------------------------------------|

Verse
|--2--4--9--------------------------------------| x2
|------------2--4--9----0--4--7----0--4--7h9-7--|
|-----------------------------------------------|
|-----------------------------------------------|

Chorus
|-----------------------------------------------------------------| x2
|-----------------------------------------------------------------|
|2-2-2-2-2-2-2-2--4-4-4-4-4-4-4-4--0-0-0-0-0-0-0-0-0-0-0-0-0-0-0-0|
|-----------------------------------------------------------------|

Verse
|--2--4--9--------------------------------------| x2
|------------2--4--9----0--4--7----0--4--7h9-7--|
|-----------------------------------------------|
|-----------------------------------------------|

Chorus
|-----------------------------------------------------------------| x4
|-----------------------------------------------------------------|
|2-2-2-2-2-2-2-2--4-4-4-4-4-4-4-4--0-0-0-0-0-0-0-0-0-0-0-0-0-0-0-0|
|-----------------------------------------------------------------|

"The same old feelings"
|------------------------------------------------------------------| x3
|------------------------------------------------------------------|
|----------------------------------7-7-7-7-7-7-7-7--2-2-2-2-2-2-2-2|
|4-4-4-4-4-4-4-4--7-7-7-7-7-7-7-7----------------------------------|

|--------------------------------|  |---------|
|--------------------------------|  |2---9---7|
|--------------------------------|  |---------|
|4-4-4-4-4-4-4-4--7-7-7-7-7-7-7-7|  |---------|

Chorus
|-----------------------------------------------------------------| x6
|-----------------------------------------------------------------|
|2-2-2-2-2-2-2-2--4-4-4-4-4-4-4-4--0-0-0-0-0-0-0-0-0-0-0-0-0-0-0-0|
|-----------------------------------------------------------------|
Suggest correction
Give kudos to tab author, rate the tab!
1 2 3 4 5
comments
print report bad tab
guest
You may want to rate the tab now too:
select rating
Wanna post a correction for this tab? Suggest correction