Oops, an error
Loading. Please wait.

Sympathetic Bass Tab

version 4
version 4

Whole song

Interactive

552 views 1 this week
no commentswrite comment
1 2 3 4 5
please rate
add to favorites
launch autoscroll
font size
0
reset
guitar tuner
Tab Pro tools
  • play this tab
  • loop segment
  • change instrument
  • show fretboard
  • metronome
×
Best way to learn
"Sympathetic"
Autoscroll
slow
fast
+/-
esc
set tempo
stop
Difficulty
Tuning
intermediate
D A D G B E
Artist: Seether
Album: Disclaimer
Song: Sympathetic (Unplugged; what he plays on unplugged version)
Tabber: Ashley Luscombe

Standard Tuning(DADG)

Intro
G------------------------------------|
D------12---7------5-----5h7-5-------|
A----12----7-----5-----5-------------| X2
D--12----7-----5-----5---------------|

Verse
G------------------------------------|
D------12---7------5-----5h7-5-------|
A----12----7-----5-----5-------------| X2
D--12----7-----5-----5---------------| X4

Chorus
G-------------------------------------------------------------|
D-------12(0)-------9----------------5----5h7-5---------------|
A----12(0)--------9---------------5-----5---------------------| X2
D—12(0)-------/9-----10-9-7/5--5-----5------------------------|

Instead of playing the ‘D’ notes on 12th you can play on the open, I’ve put it in 
to explain.

Verse X4

Chorus X4

Bridge
G------------------------------------------------------------------|
D------------------------------------------------------------------|
A---------------------------------5-5-5-5-5-5-5-5------------------| X3
D-2-2-2-2-2-2-2-2-5-5-5-5-5-5-5-5-----------------7-7-7-7-7-7-7-7--|

G-----------------------------------------------------------------|
D-----------------------------------------------------------------|
A---------------------------------5------------5-----5--3--2------|
D-2-2-2-2-2-2-2-2-5-5-5-5-5-5-5-5---------------------------------|

Chorus X6
comments
We did not receive enough feedback on this tab! Please rate:
print report bad tab
1 2 3 4 5
I want to post or [tab]
guest
You may want to rate the tab now too:
select rating
Please do not post tabs as comments. Select "correction" instead!