Oops, an error
Loading. Please wait.

Sympathetic Tab

version 4
version 4

Whole song

Interactive

1,885 views 3 this week
1 commentread comment
1 2 3 4 5
please rate
add to favorites
launch autoscroll
font size
0
reset
how to read this tab
guitar tuner
Autoscroll
slow
fast
+/-
esc
set tempo
stop
Help us to improve Ultimate-Guitar.com Take our survey!
×
Contributor
Difficulty
Tuning
coldfan 188
intermediate
D# G# C# F# A# D#
----- Band: Seether
----- Song: Sympathetic
----- Tuning: Drop Db
Re-tabbed by: John Orgler / coldfan

HEY THIS TAB HAS ALREADY BEEN ACCEPTED ITS OTHER IS
VERSION#3. SO OK ITS TABBED GOOD AND ALL BUT ITS MISSING SOME KEY
PARTS OF THE SONG TO MAKE IT WORK RIGHT, PLUS SOME OF THE CHORDS WHERE OFF 
ALL IM SAYING IS THAT THIS IS A UPDATED VERSION WITH FAT TRIMMED AND PARTS. ALSO I 
ADDED THE LYRICS AND THE ORDER THAT THE SONG IS PLAYED IN.

ENJOY AND IF YOU HAVE ANY QUESTIONS JUST EMAIL ME AT coldfan27@yahoo.com 


Lyrics-
Verse1-And my words will be here when I'm gone
       As I'm fading away against the wind
       And the words you left me linger on
       As I'm failing again now never to change this

Chorus-And I'm Sympathetic never letting on i feel the way i do 
       As I'm falling apart again at the seams
 
Verse2-And it seems I'm alone here,  hollow again 
       As I'm flailing again against the wind
       And the scars I'm left with swallow again
       As I'm failing again now never to change this

Bridge-The same old feelings are taking over 
       And I can't seem to make them go away
       And i can't take all the presure sober 
       But i can't seem to make it go away
       The same old feelings are taking over 
       And I can't seem to make them go away 
       I can't make it go away (x2)  
       
       And I'm fallin
       I'm Fallin, Fallin, Fallin, Fallin, Fallin, Fallin apart again at the seams

 
Order that the song is played

>intro
>Verse1
>Chorus
>Verse2
>Chorus x2
>Bridge
>Chorus x2
>Outro

 intro: Guitar1 plays intro alone until 8th Measure and sync
 with Guitar2 on 8th Measure to 12th
 |-----0-------0----|\
 |---3---3---3---3--| \
 |-2-------2--------|  \ Repeat during
 |------------------|  / intro (12x)
 |------------------| /
 |------------------|/

 |-----0----------0-------0------0---(10~~\0)-|
 |---3-3------10-10-----8-8----8-8------------|play from 8th to 12th Measure
 |-2---2----9-----9---7---7--7---7------------|  
 |--------------------------------------------|   
 |--------------------------------------------| 
 |--------------------------------------------|

 Verse  ( Listen to song for strum pattern )
 -GUITAR 1-
 |-0-------------|\
 |-3-------------| \ 
 |-2----2--------|  \ Repeat during
 |-0----2----5---|  / Verse X4
 |------0----5---| /
 |-----------5---|/
 
-GUITAR 2-                                              
|-0-------------|
|-3----10---8---|
|-2----9----7---|
|------7----5---|
|------7----5---|
|------7----5---|                   
Play x2
|-----0----------0-------0------0---|
|---3-3------10-10-----8-8----8-8---|
|-2---2----9-----9---7---7--7---7---|
|-----------------------------------|
|-----------------------------------|
|-----------------------------------|
Play x2                                

|--------------10-----|
|---8-8---8-(8/10h8)--| 
|-7-----7-------------|
|---------------------|
|---------------------|
|---------------------|
PLAY THIS AT THE END OF THE 4TH TIME ROUND ON THE VERSE

Chorus
 -GUITAR 1-
 |-0-------------|\
 |-3-------------| \
 |-2---4---7-----|  \ Repeat during
 |-----4---5-----|  / Chorus 4x 1st, 8x 2nd
 |-----2---5-----| /
 |---------5-----|/
 -GUITAR 2-
 |-0-------------|\
 |-3----10---8---| \ 
 |-2----9----7---|  \Repeat during
 |-0----7----5---|  / Chorus 8x 
 |------7----5---| /
 |------7----5---|/
                                 


 -Bridge- (the same old feeling is taking over....)

 |-----------------|
 |-----------------|
 |-4---7---7---9---|---- (x3)
 |-2---5---7---7---|
 |-2---5---5---7---|
 |-2---5-------7---|

 |-----------------------------------|
 |---------3/--10/--8~--3/--10/--8~--|
 |-4---7---2/---9/--7~--2/---9/--7~--|4th and 5th measures of Bridge
 |-2---5-----------------------------|
 |-2---5-----------------------------|
 |-2---5-----------------------------|

Suggest correction What's this?
You can suggest a correction to this tab. Community and Mods will review your correction and vote to approve or reject it.
comments
We did not receive enough feedback on this tab! Please rate:
print report bad tab
1 2 3 4 5
1 comment total.
0 reply
coldfan 188 wrote on November 9 2009, 10:40 pm

Hey if anyone wants any tabs from me let me know

I want to post or [tab]
guest
You may want to rate the tab now too:
select rating
Please do not post tabs as comments. Select "correction" instead!