Oops, an error
Loading. Please wait.

Sympathetic Tab

version 5
version 5

Whole song

Interactive

484 views 3 this week
no commentswrite comment
1 2 3 4 5
please rate
add to favorites
launch autoscroll
font size
0
reset
how to read this tab
guitar tuner
Autoscroll
slow
fast
+/-
esc
set tempo
stop
Help us to improve Ultimate-Guitar.com Take our survey!
×
Author
Seether - Sympathetic (Acoustic) Tuning - Drop D, down a half step or Db Ab Db Gb Bb Eb
Strumming pattern Down=d Up=u (d/du/udu) and dddd)
                              -2-22-222-    -5555-
Intro P1:   X16      Intro P2:
|-----0------0---|  |----0----0---0--10--|
|---3---3---3--3-|  |----3---10---8--10--|
|-2-------2------|  |---2---9----7-------|
|----------------|  |--0---0----0--------|
|----------------|  |--------------------|
|----------------|  |--------------------|

Verse:      X4
|-2-22-222-------------------------------|
|-3-33-333--3-33-333---------------------|
|-2-22-222--2-22-222--7-77-777-7-77-777--|
|-----------2-22-222--5-55-555-5-55-555--|
|---------------------5-55-555-5-55-555--|
|---------------------5-55-555-5-55-555--|
Chorus:     X2
|-2-22-222-------------------------------|
|-3-33-333-------------------------------|
|-2-22-222--4-44-444--7-77-777-7-77-777--|
|-----------4-44-444--5-55-555-5-55-555--|
|-----------2-22-222--5-55-555-5-55-555--|
|---------------------5-55-555-5-55-555--|

Repeat:  Verse  X4
         Chorus X3

Chorus:    On 4th
|-2-22-222-------------------------------|
|-3-33-333-------------------------------|
|-2-22-222--4-44-444--7-77-777-7-77-777--|
|-----------4-44-444--5-55-555-5-55-555--|
|-----------2-22-222--5-55-555-5-55-555--|
|---------------------5-55-555-5-55-555--|

Bridge:     X4                               End of 4th
|------------------------------------------||----------------------|
|------------------------------------------||----------------------|
|-4-44-444--7-77-777-7777-7777--9999-9999--||-4444-4444-7777-7777--|
|-2-22-222--5-55-555-7777-7777--7777-7777--||-2222-2222-5555-5555--|
|-2-22-222--5-55-555-5555-5555--7777-7777--||-2222-2222-5555-5555--|
|-2-22-222--5-55-555------------7777-7777--||-2222-2222-5555-5555--|

Solo:
|-----------------------------------------------------------------------------|
|-----------------------------------------------------------------------------|
14-14-14-14-13-13-13-14-14--14--14--14---14-14-14-14-13-13-13-14-14--14--17/0-|
12-12-12-12-12-12-12-12---12--12--12--12-12-12-12-12-12-12-12-12---12--12-----|
|-----------------------------------------------------------------------------|
|-----------------------------------------------------------------------------|

Repeat:  Chorus X3

Chorus:    On 4th                                End On 4th
|-2-22-222-----------------------------------------------------------|
|-3-33-333-----------------------------------------------------------|
|-2-22-222--4-44-444--7-77-777-7-77-777--||-7-77-777-7-77-7-77-7-77--|
|-----------4-44-444--5-55-555-5-55-555--||-5-55-555-5-55-5-55-5-55--|
|-----------2-22-222--5-55-555-5-55-555--||-5-55-555-5-55-5-55-5-55--|
|---------------------5-55-555-5-55-555--||-5-55-555-5-55-5-55-5-55--|

Chorus:    X2
|-2222-2222----------------------------------2--|
|-3333-3333----------------------------------3--|
|-2222-2222--4444-4444--7777-7777-7777-7777--2--|
|------------4444-4444--5555-5555-5555-5555-----|
|------------2222-2222--5555-5555-5555-5555-----|
|-----------------------5555-5555-5555-5555-----|
Suggest correction
Give kudos to tab author, rate the tab!
1 2 3 4 5
comments
print report bad tab
guest
You may want to rate the tab now too:
select rating
Wanna post a correction for this tab? Suggest correction