Oops, an error
Loading. Please wait.

Take Me Away Tab

version 3
version 3

Whole song

3,202 views 1 this week
no commentswrite comment
1 2 3 4 5
please rate
add to favorites
launch autoscroll
font size
0
reset
how to read this tab
guitar tuner
Autoscroll
slow
fast
+/-
esc
set tempo
stop
Help us to improve Ultimate-Guitar.com Take our survey!
×
                      Take Me Away
                by: Seether(From Disclaimer 2)
Tabbed by: boundtoprivacy@yahoo.com
This is my first tab so take it easy on me. This song is played dropped down a half step 
eb-G#-C#-F#-Bb-Eb.

Riff 1, played through the verses:
Eb--------------                 Eb-----------|
Bb--------------                 Bb-----------|
F#--------------                 F#-----------|
C#-2/44--7--7-77                 C#- 22222222-|
G#-2/44--7--7-77     (3x) then...G#- 22222222-|
eb-0-22--5--5-55                 eb- 00000000-|

As beautiful as fire
Against the evening sky
You feel the lost desire           I no longer wanna die
Take me by the hand
And see beyond the lies
Strip away the fences              Leave me needing, leave me blind
I know
You're so
Solo                               But I can't

Riff 2, through the chorus"
Eb-------------          Eb-----|
Bb-------------          Bb-222-|
F#-------------          F#-222-|
C#-6-66--22--2-   then...C#-222-|
G#-6-66--22h4--          G#-000-|
eb-4-44--00----          eb-----|

Take me away
Take me away
Take me away             'cause I don't wanna lose control
Take me away
Take me away
Take me away             'cause I don't wanna lose it all

Then it's back to riff 1 for the second verse:
Eb--------------                 Eb-----------|
Bb--------------                 Bb-----------|
F#--------------                 F#-----------|
C#-2/44--7--7-77                 C#- 22222222-|
G#-2/44--7--7-77     (3x) then...G#- 22222222-|
eb-0-22--5--5-55                 eb- 00000000-|

Relieved of all the pain
You let me see again
Delivered from my shame now       and I am lost for what to say
Cleased and pure and weak
I suffer when I dream
I need to find a purpose          I need to feel you needing me
I know
You're so
Solo                              but I can't


Then the chorus again:
Eb-------------          Eb-----|
Bb-------------          Bb-222-|
F#-------------          F#-222-|
C#-6-66--22--2-   then...C#-222-|
G#-6-66--22h4--          G#-000-|
eb-4-44--00----          eb-----|

Take me away
Take me away
Take me away             'cause I don't wanna lose control
Take me away
Take me away
Take me away             'cause I don't wanna lose it all

Riff 4:
Eb----------------------------------------|
Bb---------------4444---------------------|
F#---------------4444---------------------|
C#-6/44-4-6/44-4-4444--6/44-4--6/44-4--22-|
G#-6/44-4-6/44-4-2222--6/44-4--6/44-4--22-|
eb-4/22-2-4/22-2-------4/22-2--4/22-2--00-|

It's play twice as an interlude to the bridge

Riff 5:
Eb------------------------------------------------------|
Bb------------------------------------------------------|
F#------------------------------------------------------|
C#-6-66-6-66-6--4--4-4--4--44---6-66-6-66---9-99-9--9/8-|
G#-6-66-6-66-6--4--4-4--4--44---6-66-6-66---9-99-9--9/8-|
eb-4-44-4-44-4--2--2-2--2--22---4-44-4-44---7-77-7--7/6-|

   Pure  and   weak, I suffer when I     dream

Eb-----------------------------------0-------0---|
Bb---------------------------------0---0---0---0-|
F#-----------------------------------------------|
C#-6-66-6-66-6--4--4-4--4--44---2--------2-------|
G#-6-66-6-66-6--4--4-4--4--44---2--------2-------|
eb-4-44-4-44-4--2--2-2--2--22---0--------0-------|

   And cleansed of me, I suffer when I dream

Then back to riff 1, only this time lighter:
Eb--------------                 Eb-----------|
Bb--------------                 Bb-----------|
F#--------------                 F#-----------|
C#-2/44--7--7-77                 C#- 22222222-|
G#-2/44--7--7-77     (3x) then...G#- 22222222-|
eb-0-22--5--5-55                 eb- 00000000-|


'Cause I want you to stay
You take the pain away
I want you to stay                    I need you here to keep me sane


Then the chorus again:
Eb-------------          Eb-----|
Bb-------------          Bb-222-|
F#-------------          F#-222-|
C#-6-66--22--2-   then...C#-222-|
G#-6-66--22h4--          G#-000-|
eb-4-44--00----          eb-----|

Take me away
Take me away
Take me away             'cause I don't wanna lose control
Take me away
Take me away
Take me away             'cause I don't wanna lose it all


The outro is just like the interlude from riff 4:
Eb-------------------------------------00-|
Bb---------------4444------------------00-|
F#---------------4444------------------00-|
C#-6/44-4-6/44-4-4444--6/44-4--6/44-4--22-|
G#-6/44-4-6/44-4-2222--6/44-4--6/44-4--22-|
eb-4/22-2-4/22-2-------4/22-2--4/22-2--00-|
The exception is on the last note play all the strings on the Em.

Enjoy! Let me know what you think.
Suggest correction
What's this?
You can suggest a correction to this tab. Community and Mods will review your correction and vote to approve or reject it.
comments
We did not receive enough feedback on this tab! Please rate:
print report bad tab
1 2 3 4 5
guest
You may want to rate the tab now too:
select rating
Please do not post tabs as comments. Select "correction" instead!