Oops, an error
Loading. Please wait.

The Gift Bass Tab

version 1
version 1

Whole song

Interactive

2,148 views 1 this week
no commentswrite comment
1 2 3 4 5
3 more votes to show rating
add to favorites
launch autoscroll
font size
0
reset
guitar tuner
Autoscroll
slow
fast
+/-
esc
set tempo
stop
Help us to improve Ultimate-Guitar.com Take our survey!
×
Author
Difficulty
intermediate
Seether - Gift
Album: Karma And Effect

bass tab

by : doky 2007
taquilleros_de_sudamerica_maroyu_el_grupo_tropical_del_momento@hotmail.com

5-stringed bass
G D A E B

   INTRO/BREAK
G-|----6---6/8---|--------------|--------------9-8-9-8-----|
D-|------6-------|----4h6-4-----|----2----7/11---------9---|
A-|--------------|----------6---|--------------------------|
E-|-44-----------|-22-----------|-00---00------------------|
B-|--------------|--------------|--------------------------|
                                                                              

   VERSO
G-|--------------------------|
D-|--------------------------|
A-|--------------------------|
E-|-444444-222222-0000000000-|
B-|--------------------------|
                                                                              

   PRE-CORO
G-|--------------------------|
D-|--------------------------|
A-|--------------------------|
E-|-222222-444444-0000000000-|
B-|--------------------------|
                                                                              

   CORO
G-|--------------------------|--------------------------|
D-|--------------------------|--------------------------|
A-|--------------------------|--------------------------|
E-|-777777-------------------|-444444-222222-0000000000-|
B-|--------777777-5555555555-|--------------------------|
                                                                              

G-|--------------------------|--------------------------|
D-|--------------------------|--------------------------|
A-|--------------------------|--------------------------|
E-|-777777-------------------|-222222-444444-0000000000-|
B-|--------777777-5555555555-|--------------------------|
                                                                              
  
   SOLO
G-|--------------------------|
D-|--------------------------|
A-|--------------------------|
E-|-444444-222222-0000000000-|
B-|--------------------------|

Le mando saluttos Al Sergio Velasquez de QB 2004 que ha este chango si
que no le vuelto a ver en ningun lado. tocaba pues la guitarra y un dia de
la madre en la casa del Gomez ha tocado un exito pues.

doky2007
                                                                              

Suggest correction
Give kudos to tab author, rate the tab!
1 2 3 4 5
comments
print report bad tab
guest
You may want to rate the tab now too:
select rating
Wanna post a correction for this tab? Suggest correction