Oops, an error
Loading. Please wait.

The Gift Bass Tab

version 2
version 2

Whole song

Interactive

5,218 views 9 this week
4 commentsread comments
1 2 3 4 5
accurate
x 7
add to favorites
launch autoscroll
font size
0
reset
guitar tuner
Autoscroll
slow
fast
+/-
esc
set tempo
stop
Help us to improve Ultimate-Guitar.com Take our survey!
×
Author
Difficulty
novice
-------------------------------------------------------------------------------
			     THE GIFT - Seether
-------------------------------------------------------------------------------

Tabbed By : Daniel S. / Madkat

Tuning: Standard


 0:08 
 G||----------------------|-----------------------|--------------------|
 D||------11-------11-----|-----11----11h12p11----|------9-------9-----|
 A||---11----11-11----11--|--9------9----------9--|--7------7-7-----7--|
 E||----------------------|-----------------------|--------------------|
                                                   
 G||-/13-11-------------------|--------------------|----------------------|
 D||--------14-13h14p13-------|----11-------11-----|----11----11h12p11----|
 A||--------------------14h16-|-11----11-11----11--|-9------9----------9--|
 E||--------------------------|--------------------|----------------------|
  
 G||--------------------|-/13-11-------------------||
 D||------9-------9-----|--------14-13-------------||
 A||--7------7-7-----7--|--------------------------||
 E||--------------------|--------------------------||

                                                            x4
 G||-------------|--------------|-------------|-------------||
 D||*------------|--------------|-------------|------------*||
 A||*------------|--------------|-------------|------------*||
 E||--4--4--4-4--|--2---2--2-2--|--0--0--0-0--|--0--0--0-0--||

                                                          x2
 G||---------------|-------------|---------|--------------||
 D||*--------------|-------------|---------|-------------*||
 A||*--------------|-------------|---------|-------------*||
 E||--2-2------2/4-|-4------4/-7-|\\--0----|-0--0--0-0----||

  CHORUS
 G||------------------|-------------------|-------------------|
 D||------------------|-------------------|-------------------|
 A||--2---2-2-2--2-2--|-------------------|-------------------|
 E||------------------|--2---2-2-2--2--2--|--0---0-0-0--0--0--|

 G||---------------------|-------------------|-------------------|
 D||---------------------|-------------------|-------------------|
 A||----------/6--4------|-------------------|-------------------|
 E||--0--0-0---------6-5-|-4---4-4-4--4--4---|--2---2-2-2--2--2--|

 G||-------------------|--------------------||-------------------|
 D||-------------------|--------------------||-------------------|
 A||-------------------|----------/4--2-----||--2---2-2-2--2-2---|
 E||--0---0-0-0--0--0--|--0--0-0--------4-2-||-------------------|
     
 G||-------------------|-------------------|---------------------|
 D||-------------------|-------------------|---------------------|
 A||-------------------|-------------------|----------/6--4------|
 E||--2---2-2-2--2--2--|--0---0-0-0--0--0--|--0--0-0---------6-5-|

 G||-------------------|---------------------|------------------||
 D||-------------------|---------------------|------------------||
 A||-------------------|---------------------|------------------||
 E||--2---2-2-2--2--2--|--4--4-4--4/--7--7-/-|--0--0-0--0--0--0-||

 G||------------------||
 D||------------------||
 A||------------------||
 E||--0--0-0--0--0--0-||

   INTRO RIFF
 G||----------------------|-----------------------|--------------------|
 D||------11-------11-----|-----11----11h12p11----|------9-------9-----|
 A||---11----11-11----11--|--9------9----------9--|--7------7-7-----7--|
 E||----------------------|-----------------------|--------------------|
                                                   
 G||-/13-11-------------------|--------------------|----------------------|
 D||--------14-13h14p13-------|----11-------11-----|----11----11h12p11----|
 A||--------------------14h16-|-11----11-11----11--|-9------9----------9--|
 E||--------------------------|--------------------|----------------------|
  
 G||--------------------|-/13-11-------------------||
 D||------9-------9-----|--------14-13-------------||
 A||--7------7-7-----7--|--------------------------||
 E||--------------------|--------------------------||

  VERSE                                                     x4
 G||-------------|--------------|-------------|-------------||
 D||*------------|--------------|-------------|------------*||
 A||*------------|--------------|-------------|------------*||
 E||--4--4--4-4--|--2---2--2-2--|--0--0--0-0--|--0--0--0-0--||

                                                          x2
 G||---------------|-------------|---------|--------------||
 D||*--------------|-------------|---------|-------------*||
 A||*--------------|-------------|---------|-------------*||
 E||--2-2------2/4-|-4------4/-7-|\\--0----|-0--0--0-0----||

  CHORUS
 G||------------------|-------------------|-------------------|
 D||------------------|-------------------|-------------------|
 A||--2---2-2-2--2-2--|-------------------|-------------------|
 E||------------------|--2---2-2-2--2--2--|--0---0-0-0--0--0--|

 G||---------------------|-------------------|-------------------|
 D||---------------------|-------------------|-------------------|
 A||----------/6--4------|-------------------|-------------------|
 E||--0--0-0---------6-5-|-4---4-4-4--4--4---|--2---2-2-2--2--2--|

 G||-------------------|--------------------||-------------------|
 D||-------------------|--------------------||-------------------|
 A||-------------------|----------/4--2-----||--2---2-2-2--2-2---|
 E||--0---0-0-0--0--0--|--0--0-0--------4-2-||-------------------|
     
 G||-------------------|-------------------|---------------------|
 D||-------------------|-------------------|---------------------|
 A||-------------------|-------------------|----------/6--4------|
 E||--2---2-2-2--2--2--|--0---0-0-0--0--0--|--0--0-0---------6-5-|

 G||-------------------|---------------------|------------------||
 D||-------------------|---------------------|------------------||
 A||-------------------|---------------------|------------------||
 E||--2---2-2-2--2--2--|--4--4-4--4/--7--7-/-|--0--0-0--0--0--0-||

 G||------------------||
 D||------------------||
 A||------------------||
 E||--0--0-0--0--0--0-||

 SOLO
 G||--------------------|--------------------|-------------------|
 D||*-------------------|--------------------|-------------------|
 A||*-------------------|--------------------|-------------------|
 E||--4---4-4-4--4--4---|--2---2b-2-2--2--2--|--0---0-0-0--0--0--|
                          x2
 G||-----------------------||
 D||----------------------*||
 A||----------------------*||
 E||--0-0-0--0-0-0--0--0---||

 G||-------|------|------|-------------||
 D||-------|------|------|-------------||
 A||-------|------|------|-------------||
 E||--4----|--2---|--0---|-------------||

 G||-------|------|------|-------------||
 D||-------|------|------|-------------||
 A||-------|------|------|-------------||
 E||-------|------|------|-------------||

 CHORUS
 G||------------------|-------------------|-------------------|
 D||*-----------------|-------------------|-------------------|
 A||*-2---2-2-2--2-2--|-------------------|-------------------|
 E||------------------|--2---2-2-2--2--2--|--0---0-0-0--0--0--|

 G||---------------------|-------------------|-------------------|
 D||---------------------|-------------------|-------------------|
 A||----------/6--4------|-------------------|-------------------|
 E||--0--0-0---------6-5-|-4---4-4-4--4--4---|--2---2-2-2--2--2--|

 G||-------------------|--------------------||-------------------|
 D||-------------------|--------------------||-------------------|
 A||-------------------|----------/4--2-----||--2---2-2-2--2-2---|
 E||--0---0-0-0--0--0--|--0--0-0--------4-2-||-------------------|
     
 G||-------------------|-------------------|---------------------|
 D||-------------------|-------------------|---------------------|
 A||-------------------|-------------------|----------/6--4------|
 E||--2---2-2-2--2--2--|--0---0-0-0--0--0--|--0--0-0---------6-5-|

 G||-------------------|---------------------|------------------||
 D||-------------------|---------------------|------------------||
 A||-------------------|---------------------|------------------||
 E||--2---2-2-2--2--2--|--4--4-4--4/--7--7-/-|--0--0-0--0--0--0-||
                       x2
 G||-------------------||-------||
 D||------------------*||-------||
 A||------------------*||-------||
 E||--0--0-0--0--0--0--||--0----||

| /  slide up
| \  slide down
| h  hammer-on
| p  pull-off
| ~  vibrato
| +  harmonic
| x  Mute note
===============================================================================
Suggest correction
What's this?
You can suggest a correction to this tab. Community and Mods will review your correction and vote to approve or reject it.
comments
print report bad tab
4 comments total. Showing first comments.
0 reply
__Ronnie__ 2,178 wrote on April 17 2007, 04:58 pm

Looks pretty good, 4 stars :)

0 reply
PluckU 764 wrote on November 4 2007, 02:49 pm

man i cant hear teh bass beat w/ my shitty laptop pretty good for all i know

0 reply
Jundark 18 wrote on July 14 2008, 02:02 am

if its correct then why only 4 stars? i cant understand this website most every tab is in correct and if its a 5 star that means it is? well what about the other stars

guest
You may want to rate the tab now too:
select rating
Please do not post tabs as comments. Select "correction" instead!