Oops, an error
Loading. Please wait.

The Gift Tab

version 4
version 4

Interactive

7,039 views 1 this week
2 commentsread comments
1 2 3 4 5
excellent!
x 2
add to favorites
launch autoscroll
font size
0
reset
how to read this tab
guitar tuner
Tab Pro tools
  • play this tab
  • loop segment
  • change instrument
  • show fretboard
  • metronome
Autoscroll
slow
fast
+/-
esc
set tempo
stop
Contributor
Tabbed by: aslashwannabee
Email: aslashwannabee@aol.com
Tuning - Drop D
1-e
2-b
3-g
4-d
5-a
6-d


Just play the tab from top to bottom, its in the right order.

The way i organized this is the entire tab for guitar 1 comes first, then the entire guitar
2 tab is below the guitar 1 tab.  After each tab, the order that you play each section is listed.

------------------------------------------------------------------------------------------
GUITAR 1
------------------------------------------------------------------------------------------

INTRO
e|-----------------------------------------------------------------------------0--|
b|-----------------------------------------------------------------------------0--|
g|------4----------3----------1-1----------------4----------3----------1-1--------|
d|----6---6------4---4------2-----4-2---4-2----6---6------4---4------2-----4-2----|
a|--6-------6--4-------4--2-----------2------6-------6--4-------4--2--------------|
d|--------------------------------------------------------------------------------|

INTRO after playing 1 riff above
e|-----------------------------|x2
b|----/12----------------------|
g|--0-----11~---/13------------|
d|------------0-----13-13s16~--|
a|-----------------------------|
d|-----------------------------|

VERSE
e|------|x4
b|------|
g|--4~--|
d|--5~--|
a|--5~--|
d|------|

PRE-CHORUS 
e|-------------------------|x2
b|--12----------12---------|
g|-----9-11-9-8----9-11br--|
d|-------------------------|
a|-------------------------|
d|-------------------------|

CHORUS 
e|-------------------------------------------------------------------------------------------|
b|-------------------------------------------------------------------------------------------|
g|--------------------------------------------11-11-11-11s9-9-9-9-9-9s8-8-8-8-8-8s6-6-6-6-6--|
d|--9-9-9-9-9-9-9-9--12-12-12-12-12-12-12-12-------------------------------------------------|
a|--9-9-9-9-9-9-9-9--12-12-12-12-12-12-12-12---9--9--9--9s7-7-7-7-7-7s6-6-6-6-6-6s4-4-4-4-4--|
d|--9-9-9-9-9-9-9-9--12-12-12-12-12-12-12-12-------------------------------------------------|

(chorus continued)
e|-------------------------------------------------------------------------------|
b|-------------------------------------------------------------------------------|
g|------------------------------------3-3-3-3s4-4-4-4-4-4s6-6-6-6-6-6s8-8-8-8-8--|
d|--9-9-9-9-9-9-9-9--7-7-7-7-7-7-7-7---------------------------------------------|
a|--9-9-9-9-9-9-9-9--7-7-7-7-7-7-7-7--1-1-1-1s2-2-2-2-2-2s4-4-4-4-4-4s6-6-6-6-6--|
d|--9-9-9-9-9-9-9-9--7-7-7-7-7-7-7-7---------------------------------------------|

(chorus continued)
e|-------------------------------------------------------------------------------------------|
b|-------------------------------------------------------------------------------------------|
g|--------------------------------------------11-11-11-11s9-9-9-9-9-9s8-8-8-8-8-8s6-6-6-6-6--|
d|--9-9-9-9-9-9-9-9--12-12-12-12-12-12-12-12-------------------------------------------------|
a|--9-9-9-9-9-9-9-9--12-12-12-12-12-12-12-12---9--9--9--9s7-7-7-7-7-7s6-6-6-6-6-6s4-4-4-4-4--|
d|--9-9-9-9-9-9-9-9--12-12-12-12-12-12-12-12-------------------------------------------------|

(chorus continued)
e|------------------------------------------------------------------------------|
b|------------------------------------------------------------------------------|
g|------------------------------------------------------------------------------|
d|--9-9-9-9-9-9-9-9--12-12-12-12-12-12-12-12--4-4-4-4-4-4-4-4--4-4-4-4-4-4-4-4--|
a|--9-9-9-9-9-9-9-9--12-12-12-12-12-12-12-12--4-4-4-4-4-4-4-4--4-4-4-4-4-4-4-4--|
d|--9-9-9-9-9-9-9-9--12-12-12-12-12-12-12-12--4-4-4-4-4-4-4-4--4-4-4-4-4-4-4-4--|

POST-CHORUS 
e|-----------------------------|x2
b|----/12----------------------|
g|--0-----11~---/13------------|
d|------------0-----13-13s16~--|
a|-----------------------------|
d|-----------------------------|

SOLO 
e|-------------------------------------------|x2
b|--12---------------------------------------|
g|-----9-11-9-8-9-8---------------11---------|
d|------------------11-9-11p9-11b----9h11p9--|
a|-------------------------------------------|
d|-------------------------------------------|

VERSE 
e|-----------------------------------------------------------------------------0--|
b|-----------------------------------------------------------------------------0--|
g|------4----------3----------1-1----------------4----------3----------1-1--------|
d|----6---6------4---4------2-----4-2---4-2----6---6------4---4------2-----4-2----|
a|--6-------6--4-------4--2-----------2------6-------6--4-------4--2--------------|
d|--------------------------------------------------------------------------------|

OUTRO 
e|-------------------------------------------|x3
b|--12---------------------------------------|
g|-----9-11-9-8-9-8---------------11---------|
d|------------------11-9-11p9-11b----9h11p9--|
a|-------------------------------------------|
d|-------------------------------------------|

(outro continued)
e|-----------------------------------------|
b|--12-------------------------------------|
g|-----9-11-9-8-9-8------------------------|
d|------------------11-9-11p9-11br-9h11p9--|
a|-----------------------------------------|
d|-----------------------------------------|

---ORDER---
Intro
Verse
Pre-chorus
Chorus
Post-chorus
Verse
Pre-chorus
Chorus
Solo
Verse
Chorus
Outro

------------------------------------------------------------------------------------------
GUITAR 2
------------------------------------------------------------------------------------------

INTRO
e|-----------------------------------------------------------------------------0--|x2
b|-----------------------------------------------------------------------------0--|
g|------4----------3----------1-1----------------4----------3----------1-1--------|
d|----6---6------4---4------2-----4-2---4-2----6---6------4---4------2-----4-2----|
a|--6-------6--4-------4--2-----------2------6-------6--4-------4--2--------------|
d|--------------------------------------------------------------------------------|

VERSE 
e|-----------------------------------------------------------------------------0--|x2
b|-----------------------------------------------------------------------------0--|
g|------4----------3----------1-1----------------4----------3----------1-1--------|
d|----6---6------4---4------2-----4-2---4-2----6---6------4---4------2-----4-2----|
a|--6-------6--4-------4--2-----------2------6-------6--4-------4--2--------------|
d|--------------------------------------------------------------------------------|

PRE-CHORUS
e|----------------------------------------------------------------------|x2
b|----------------------------------------------------------------------|
g|----------------------------------------------------------------------|
d|--6-6-6-6-6-6-6-6--8-8-8-8-8-8-8-8--4-4-4-4-4-4-4-4--4-4-4-4-4-4-4-4--|
a|--6-6-6-6-6-6-6-6--8-8-8-8-8-8-8-8--4-4-4-4-4-4-4-4--4-4-4-4-4-4-4-4--|
d|--6-6-6-6-6-6-6-6--8-8-8-8-8-8-8-8--4-4-4-4-4-4-4-4--4-4-4-4-4-4-4-4--|

CHORUS 
e|------------------------------------------------------------------------------|
b|------------------------------------------------------------------------------|
g|------------------------------------------------------------------------------|
d|--9-9-9-9-9-9-9-9--12-12-12-12-12-12-12-12--4-4-4-4-4-4-4-4--4-4-4-4-4-4-4-4--|
a|--9-9-9-9-9-9-9-9--12-12-12-12-12-12-12-12--4-4-4-4-4-4-4-4--4-4-4-4-4-4-4-4--|
d|--9-9-9-9-9-9-9-9--12-12-12-12-12-12-12-12--4-4-4-4-4-4-4-4--4-4-4-4-4-4-4-4--|

(chorus continued)
e|----------------------------------------------------------------------|
b|----------------------------------------------------------------------|
g|----------------------------------------------------------------------|
d|--9-9-9-9-9-9-9-9--7-7-7-7-7-7-7-7--4-4-4-4-4-4-4-4--4-4-4-4-4-4-4-4--|
a|--9-9-9-9-9-9-9-9--7-7-7-7-7-7-7-7--4-4-4-4-4-4-4-4--4-4-4-4-4-4-4-4--|
d|--9-9-9-9-9-9-9-9--7-7-7-7-7-7-7-7--4-4-4-4-4-4-4-4--4-4-4-4-4-4-4-4--|

(chorus continued)
e|------------------------------------------------------------------------------|x2
b|------------------------------------------------------------------------------|
g|------------------------------------------------------------------------------|
d|--9-9-9-9-9-9-9-9--12-12-12-12-12-12-12-12--4-4-4-4-4-4-4-4--4-4-4-4-4-4-4-4--|
a|--9-9-9-9-9-9-9-9--12-12-12-12-12-12-12-12--4-4-4-4-4-4-4-4--4-4-4-4-4-4-4-4--|
d|--9-9-9-9-9-9-9-9--12-12-12-12-12-12-12-12--4-4-4-4-4-4-4-4--4-4-4-4-4-4-4-4--|

POST-CHORUS
e|-----------------------------------------------------------------------------0--|
b|-----------------------------------------------------------------------------0--|
g|------4----------3----------1-1----------------4----------3----------1-1--------|
d|----6---6------4---4------2-----4-2---4-2----6---6------4---4------2-----4-2----|
a|--6-------6--4-------4--2-----------2------6-------6--4-------4--2--------------|
d|--------------------------------------------------------------------------------|

SOLO 
e|----------------------------------------------------------------------|x2
b|----------------------------------------------------------------------|
g|----------------------------------------------------------------------|
d|--9-9-9-9-9-9-9-9--7-7-7-7-7-7-7-7--4-4-4-4-4-4-4-4--4-4-4-4-4-4-4-4--|
a|--9-9-9-9-9-9-9-9--7-7-7-7-7-7-7-7--4-4-4-4-4-4-4-4--4-4-4-4-4-4-4-4--|
d|--9-9-9-9-9-9-9-9--7-7-7-7-7-7-7-7--4-4-4-4-4-4-4-4--4-4-4-4-4-4-4-4--|

VERSE 
e|-----------------------------------------------------------------------------0--|
b|-----------------------------------------------------------------------------0--|
g|------4----------3----------1-1----------------4----------3----------1-1--------|
d|----6---6------4---4------2-----4-2---4-2----6---6------4---4------2-----4-2----|
a|--6-------6--4-------4--2-----------2------6-------6--4-------4--2--------------|
d|--------------------------------------------------------------------------------|

OUTRO
e|----------------------------------------------------------------------|x4
b|----------------------------------------------------------------------|
g|----------------------------------------------------------------------|
d|--9-9-9-9-9-9-9-9--7-7-7-7-7-7-7-7--4-4-4-4-4-4-4-4--4-4-4-4-4-4-4-4--|
a|--9-9-9-9-9-9-9-9--7-7-7-7-7-7-7-7--4-4-4-4-4-4-4-4--4-4-4-4-4-4-4-4--|
d|--9-9-9-9-9-9-9-9--7-7-7-7-7-7-7-7--4-4-4-4-4-4-4-4--4-4-4-4-4-4-4-4--|

---ORDER---
Intro
Verse
Pre-chorus
Chorus
Post-chorus
Verse
Pre-chorus
Chorus
Solo
Verse
Chorus
Outro

=========================================================================================
LEGEND
=========================================================================================
/ - slide up from infinite
\ - slide down from infinite
~ - hand vibrato
h - hammer on
p - pull off
s - slide from note
b - bend note
r - release bend
comments
We did not receive enough feedback on this tab! Please rate:
print report bad tab
1 2 3 4 5
2 comments total.
0 reply
dark_rider92 wrote on May 16 2010, 03:24 pm

tuning is Drop D flat, man. i know it's really not a big deal, but it helps, especially since the rest of the album is in drop d flat.

0 reply
Thumbgump Jr. wrote on September 30 2010, 05:49 pm

yea bro not bad though.

I want to post or [tab]
guest
You may want to rate the tab now too:
select rating
Please do not post tabs as comments. Select "correction" instead!