Oops, an error
Loading. Please wait.

Tongue Bass Tab

version 1
version 1

Whole song

Interactive

609 views 1 this week
no commentswrite comment
1 2 3 4 5
please rate
add to favorites
launch autoscroll
font size
0
reset
guitar tuner
Autoscroll
slow
fast
+/-
esc
set tempo
stop
Help us to improve Ultimate-Guitar.com Take our survey!
×
Author
Difficulty
intermediate
Seether - Tongue
Album: Karma And Effect

bass tab

by : doky 2007
taquilleros_de_sudamerica_maroyu_el_grupo_tropical_del_momento@hotmail.com

5-stringed bass
G D A E B

   INTRO/VERSO
G-|-----------------------|-----------|---|---------------|
D-|-----------------------|-----------|---|---------------|
A-|-----------------------|-----------|---|---------------|
E-|------------2---22---2-|-7777\3333-|---|-22-----22-----|
B-|-3---33---3------------|-----------|---|----3------3---|
                                        +                                      

   CORO
G-|---------------------------------|
D-|---------------------------------|
A-|---------------------------------|
E-|--------7-7-77-0h2-2---2-0h2-2---|
B-|-3-3-33--------------------------|
                                                                              

   MIDDLE
G-|----------------------------|
D-|----------------------------|
A-|----------------------------|
E-|-333333333333---------------|
B-|--------------33-3---33-3---|
                                                                              

G-|-----------------------------------------------------|
D-|-----------------------------------------------------|
A-|-----------------------------------------------------|
E-|-333333333333/777777777777\555555555555\333333333333-|
B-|-----------------------------------------------------|
                                                                              

   FIN
G-|-------------|
D-|-------------|
A-|-------------|
E-|-2-----2-----|
B-|---3-----3---|
                         
Le mando saludos demasiados Al Manuel Marañon de QB 2004, un dia cuando hemos
grabado los comentarios para el video sobre la basura, para nombrarlo a el le dije:
ahora que nos dice el comandante Mejia? comente pues comandante compadre.

doky2007                                                     

Suggest correction
Give kudos to tab author, rate the tab!
1 2 3 4 5
comments
print report bad tab
guest
You may want to rate the tab now too:
select rating
Please do not post tabs as comments. Select "correction" instead!