Oops, an error
Loading. Please wait.

Tongue Tab

version 1
version 1

Whole song

Interactive

14,499 views 6 this week
4 commentsread comments
1 2 3 4 5
x 15
add to favorites
launch autoscroll
font size
0
reset
how to read this tab
guitar tuner
Autoscroll
slow
fast
+/-
esc
set tempo
stop
Help us to improve Ultimate-Guitar.com Take our survey!
×
Author
Artist:Seether
Song:Tongue
Album: Karma and effect

Tabbed by Eric Hines
email me if you have any corrections/comments hineem10@uwgb.edu

One of my favorite songs from one of my favorite albums

Tuning:DADGBE
                    intro/verse
e|----------------------------------------------|
B|----------------------------------------------|
G|----------------------------------------------|
D|---9---11--11----------------6--7--6--4-------|      4x
A|---0---0---0---(2x)-then---  4--4--4--4--(2x)-|
D|---0---0---0-----------------4--4--4--4-------|

                    Prechorus
e|---------------------------------------------------------------|
B|---------------------------3-----------3-----------------------|
G|--4-------7---------6--6---2----6--6---2-----4-------7---------|
D|--2--(8x)-5---(8x)--4--4---0----4--4---0-----4--(8x)-5---------|
A|--2-------5---------4--4---0----4--4---0-----2-------5---------|
D|----------5---------4--4---0----4--4---0-------------5---------|

                     Chorus
e|------------------------------------------------------|
B|-----3------------------------------------------------|
G|-----2-------4------------4--6--6-----4--6--6---------|
D|-----0-------4------------2--4--4-----2--4--4---------|        2x
A|-----0-------2------------2--4--4-----2--4--4---------|
D|-----0--------------------2--4--4-----2--4--4---------|

(Verse)2x
(Prechorus)
(Chorus)2x


                     Bridge
e|------------------------------------------------------------------------|
B|----------------------------3------3------------------------------------|
G|---7----9----11----12----6--2---6--2------------7--9--11--12----11------|
D|---x----x----x-----x-----4--0---4--0-(2x)-then--x--x--x---x-----9--(8x)-|
A|---5----7----9-----10----4--0---4--0------------5--7--9---10----9-------|
D|---0----0----0-----0-----4--0---4--0------------0--0--0---0-----9-------|

e|---------------------------------|
B|---------------------------------|
G|----9------------7---------------|
D|----7--(8x)------5---(8x)--------|
A|----7------------5---------------|
D/----7------------5---------------|


(Chorus) 4x

             Outro                     "Goodbye, Cruel World"
e|------------------------------------|
B|-----------3--------3---------------|
G|--------6--2-----6--2---------------|
D|--------4--0-----4--0---------------|
A|--------4--0-----4--0---------------|
D|--------4--0-----4--0---------------|
Suggest correction
comments
print report bad tab
4 comments total. Showing first comments.
0 reply
Anarion614 81 Nov 07, 2006 03:47 PM

good job, awesome song. peace

0 reply
rockwillsurvive 10 Jul 19, 2008 11:17 PM

one of the better seether tabs i've come across.

seether rules

0 reply
mr-flynn 10 Aug 20, 2008 08:59 PM

finally a good seether tab

guest
You may want to rate the tab now too:
select rating
Wanna post a correction for this tab? Suggest correction