Oops, an error
Loading. Please wait.

Tongue Tab

version 3
version 3

Whole song

Interactive

1,586 views 3 this week
no commentswrite comment
1 2 3 4 5
please rate
add to favorites
launch autoscroll
font size
0
reset
how to read this tab
guitar tuner
Tab Pro tools
  • play this tab
  • loop segment
  • change instrument
  • show fretboard
  • metronome
Autoscroll
slow
fast
+/-
esc
set tempo
stop
Contributor
fairly easy song. all the chicks in my guitar class like this one.

s-slide
h-hammer on

e|------------------------------------------------------------------|
b|------------------------------------------------------------------|
g|------------------------------------------------------------------|
d|--9h11--11--11-11-9h11--11--11-11--6-7-6-4--4-4--6-7-6-4--4-4-----|  X4
a|--0-0---0---0--0--0-0---0---0--0---4-4-4-4--4-4--4-4-4-4--4-4-----|
D|--0-0---0---0--0--0-0---0---0--0---4-4-4-4--4-4--4-4-4-4--4-4-----|
  

e|------------------------------------------------------------------|
b|---------------3------3--------------3-3-3------------------------|
g|-4----7----66--2--66--2----4----7----2-2-2-4-4-4---4s6-6---4s6-6--|
d|-4----5----44--0--44--0----4----5----0-0-0-4-4-4---2s4-4---2s4-4--|
a|-2----5----44--0--44--0----2----5----0-0-0-2-2-2---2s4-4---2s4-4--|
D|------5----44--0--44--0---------5----0-0-0---------2s4-4---2s4-4--|
  
  
e|------------------------------------------------------------------|
b|-3-3-3------------------------------------------------------------|
g|-2-2-2-4-4-4---4s6-6---4s6-6--------------------------------------|
d|-0-0-0-4-4-4---2s4-4---2s4-4--------------------------------------|
a|-0-0-0-2-2-2---2s4-4---2s4-4--------------------------------------|
D|-0-0-0---------2s4-4---2s4-4--------------------------------------|
  
   
e|------------------------------------------------------------------|
b|------------------------------------------------------------------|
g|------------------------------------------------------------------|
d|--9h11--11--11-11-9h11--11--11-11--6-7-6-4--4-4--6-7-6-4--4-4-----|  X4
a|--0-0---0---0--0--0-0---0---0--0---4-4-4-4--4-4--4-4-4-4--4-4-----|
D|--0-0---0---0--0--0-0---0---0--0---4-4-4-4--4-4--4-4-4-4--4-4-----|
  
  
e|------------------------------------------------------------------|
b|---------------3------3--------------3-3-3------------------------|
g|-4----7----66--2--66--2----4----7----2-2-2-4-4-4---4s6-6---4s6-6--|
d|-4----5----44--0--44--0----4----5----0-0-0-4-4-4---2s4-4---2s4-4--|
a|-2----5----44--0--44--0----2----5----0-0-0-2-2-2---2s4-4---2s4-4--|
D|------5----44--0--44--0---------5----0-0-0---------2s4-4---2s4-4--|
  
  
e|------------------------------------------------------------------|
b|-3-3-3------------------------------------------------------------|
g|-2-2-2-4-4-4---4s6-6---4s6-6--------------------------------------|
d|-0-0-0-4-4-4---2s4-4---2s4-4--------------------------------------|
a|-0-0-0-2-2-2---2s4-4---2s4-4--------------------------------------|
D|-0-0-0---------2s4-4---2s4-4--------------------------------------|
  
bridge
e|------------------------------------------------------------------|
b|-----------------------------------------------3------3-----------|
g|--7-7-7-7-9-9-9-9-11-11-11-11-12-12-12-12--6-6-2--6-6-2-----------|
d|--x-x-x-x-x-x-x-x-x--x--x--x--x--x--x--x---4-4-0--4-4-0-----------| X2
a|--5-5-5-5-7-7-7-7-9--9--9--9--10-10-10-10--4-4-0--4-4-0-----------|
D|--0-0-0-0-0-0-0-0-0--0--0--0--0--0--0--0---4-4-0--4-4-0-----------|
  
  
e|------------------------------------------------------------------|
b|------------------------------------------------------------------|
g|--7-7-7-7-9-9-9-9-11-11-11-11-12-12-12-12-------------------------|
d|--x-x-x-x-x-x-x-x-x--x--x--x--x--x--x--x--------------------------|
a|--5-5-5-5-7-7-7-7-9--9--9--9--10-10-10-10-------------------------|
D|--0-0-0-0-0-0-0-0-0--0--0--0--0--0--0--0--------------------------|
  
  
e|--------------------------------------------------------------------|
b|--------------------------------------------------------------------|
g|-11-11-11-11-11-11-11-11-9-9-9-9-9-9-9-9-7-7-7-7-7-7-7-7-7-7-7-7-7--|
d|-9--9--9--9--9--9--9--9--7-7-7-7-7-7-7-7-5-5-5-5-5-5-5-5-5-5-5-5-5--|
a|-9--9--9--9--9--9--9--9--7-7-7-7-7-7-7-7-5-5-5-5-5-5-5-5-5-5-5-5-5--|
D|-9--9--9--9--9--9--9--9--7-7-7-7-7-7-7-7-5-5-5-5-5-5-5-5-5-5-5-5-5--|
  
  
e|-------------------------------|
b|--3----------------------------|
g|--2--4--4s6-6---4s6-6----------|
d|--0--4--2s4-4---2s4-4----------| X4
a|--0--2--2s4-4---2s4-4----------|
D|--0-----2s4-4---2s4-4----------|
  
  
e|----------------------------------------------------------------------|
b|------3------------3------------3-----------3-------------------------|
g|-6----2------6-----2-------6----2-----6-----2-------------------------|
d|-4----0------4-----0-------4----0-----4-----0-------------------------|
a|-4----0------4-----0-------4----0-----4-----0-------------------------|
D|-4----0------4-----0-------4----0-----4-----0-------------------------|
   good bye    crule world   good bye   crule world  
comments
We did not receive enough feedback on this tab! Please rate:
print report bad tab
1 2 3 4 5
I want to post or [tab]
guest
You may want to rate the tab now too:
select rating
Please do not post tabs as comments. Select "correction" instead!