Oops, an error
Loading. Please wait.

Tonight Tab

version 1
version 1

Whole song

Interactive

41,300 views 6 this week
3 commentsread comments
1 2 3 4 5
x 8
add to favorites
launch autoscroll
font size
0
reset
how to read this tab
guitar tuner
Autoscroll
slow
fast
+/-
esc
set tempo
stop
Help us to improve Ultimate-Guitar.com Take our survey!
×
Standard Tuning

Intro
Rhythm Guitar
e--------------------------------------|
b--------------------------------------|
g-44444444444444-666-------------------|
d-44444444444444-666-66666666-22222222-|
a-22222222222222-444-66666666-22222222-|
e--------------------44444444-00000000-|

Lead Guitar
e-----------------------------------------------------|
b-------2-4-4-4-4-4-4-4-4---4-4-4-4-2----2--4---------|
g-4-4-4--------------------------------4-------4--3-1-|
d-----------------------------------------------------|
a-----------------------------------------------------|
e-----------------------------------------------------|

Verse
Lead
e------------------------------------------------------------------|
b------------------------------------------------------------------|
g-----------6-6-8-8-8-8-8-8-8-6------------------------------------|
d-9-9-9-9-9---------------------9--6-6-6-6-6-----------------------|
a---------------------------------------------9--7-7-7-7-7-9-9-9-9-|
e------------------------------------------------------------------|

Rhythm
e------------------------------------|
b------------------------------------|
g-4444444444444444-------------------|
d-4444444444444444-66666666-22222222-|
a-2222222222222222-66666666-22222222-|
e------------------44444444-00000000-|

Pre-Chorus
Lead
e-------------------------------------------------------------------------------|
b-------------------------------------------------------------------------------|
g-4-4-4-4--4/6-6--6/8-8-8-8-8--8/9/8/6-13-13-13-13-13-11--9-9-9-9-9-11-11-11-11-|
d-x-x-x-x--x/x-x--x/x-x-x-x-x--x/x/x/x--x--x--x--x--x--x--x-x-x-x-x--x--x--x--x-|
a-2-2-2-2--2/4-4--4/6-6-6-6-6--6/7/6/4-11-11-11-11-11--9--7-7-7-7-7--9--9--9--9-|
e-------------------------------------------------------------------------------|

e--------------------------------------------------------|
b--------------------------------------------------------|
g-4-4-4-4--4/6-6--6/8-8-8-8-8--8/9/8/6-------------------|
d-x-x-x-x--x/x-x--x/x-x-x-x-x--x/x/x/x--7777777777777777-|
a-2-2-2-2--2/4-4--4/6-6-6-6-6--6/7/6/4--7777777777777777-|
e---------------------------------------5555555555555555-|

Rhythm
e---------------------------------------------------------------------|
b---------------------------------------------------------------------|
g---------------------------------------------------------------------|
d-6666666666666666-2222222222222222-6666666666666666-7777777777777777-|
a-6666666666666666-2222222222222222-6666666666666666-7777777777777777-|
e-4444444444444444-0000000000000000-4444444444444444-5555555555555555-|

Chorus
Lead
e---------------------------------------------------------------------|
b---------------------------------------------------------------------|
g-4-4-4-4-6-6-6-6-8-8-8-8-6-6-6-6-4-4-4-4-6-6-6-6-8-8-8-8-11-11-11-11-|
d-x-x-x-x-x-x-x-x-x-x-x-x-x-x-x-x-x-x-x-x-x-x-x-x-x-x-x-x--x--x--x--x-|
a-2-2-2-2-4-4-4-4-6-6-6-6-4-4-4-4-2-2-2-2-4-4-4-4-6-6-6-6--9--9--9--9-|
e---------------------------------------------------------------------|

e-----------------------------------------------------------------------------------------|
b-----------------------------------------------------------------------------------------|
g-9-9-9-9-11-11-11-11-13-13-13-13-11-11-11-11-9-9-9-9-11-11-11-11-13-13-13-13-16-16-16-16-|
d-x-x-x-x--x--x--x--x--x--x--x--x--x--x--x--x-x-x-x-x--x--x--x--x--x--x--x--x--x--x--x--x-|
a-7-7-7-7--9--9--9--9-11-11-11-11--9--9--9--9-7-7-7-7--9--9--9--9-11-11-11-11-14-14-14-14-|
e-----------------------------------------------------------------------------------------|

Rhythm
e----------------------------------------------------------------|
b----------------------------------------------------------------|
g-44444444444444444444-66666666666666666666----------------------|
d-44444444444444444444-66666666666666666666-77777777777777777777-|
a-22222222222222222222-44444444444444444444-77777777777777777777-|
e-------------------------------------------55555555555555555555-|

Verse
Pre-Chorus
Chorus

Bridge
e-----------------|
b-----------------|
g-6~------2~------|
d-6~--2~--2~--4~--| 2x
a-4~--2~--0~--4~--|
e-----0~------2~--|

Rhythm
e-------------------------------------|
b-------------------------------------|
g-66666666----------22222222----------|
d-66666666-22222222-22222222-44444444-|
a-44444444-22222222-00000000-44444444-|
e----------00000000----------22222222-|

Lead
e----------------------|
b-----------10~--9-7~--|
g-6~--8-9~-------------|
d----------------------|
a----------------------|
e----------------------|

e-------------------------------------|
b-------------------------------------|
g-9-9--9/11-11--11/13-13/11/9/8/6/4~--|
d-x-x--x/-x--x---x/-x--x/-x/x/x/x/x~--|
a-7-7--7/-9--9---9/11-11/-9/7/6/4/2~--|
e-------------------------------------|

Last Pre-Chorus
e-------------------------------------------------------|
b-------------------------------------------------------|
g-------------1---------------------------1-------------|
d-----2---4-----4-2-2h4p2---------2---4-----4-2-2h4p2---|
a---2---2---2-------------2-----2---2---2-------------2-|
e-0---------------------------0-------------------------|

Chorus
End on
e-----|
b-----|
g-----|
d-2~--|
a-2~--|
e-0~--|
Suggest correction
comments
print report bad tab
3 comments total.
0 reply
HaveSomeGlue 125 Sep 30, 2011 04:49 PM

Finally a tab!

THANK YOU!

0 reply
E*N 10 Feb 21, 2012 09:25 AM

I'm a little confused as to where the Pre-Chorus starts but apart from that, great tab

0 reply
Daughtryfan497 1,207 Mar 25, 2016 11:52 AM

The tuning is actually is Drop B not Standard b/c, it's so deceiving.

guest
You may want to rate the tab now too:
select rating
Wanna post a correction for this tab? Suggest correction