Oops, an error
Loading. Please wait.

Untitled Instrumental Tab

version 2
version 2

Whole song

  • It includes all riffs and guitars with precision. ... Show more
22 views 3 this week
no commentswrite comment
1 2 3 4 5
3 more votes to show rating
add to favorites
launch autoscroll
font size
0
reset
how to read this tab
guitar tuner
Autoscroll
slow
fast
+/-
esc
set tempo
stop
Help us to improve Ultimate-Guitar.com Take our survey!
×
Author
Difficulty
Tuning
novice
C# G# C# F# A# D#
About this tab version
It includes all riffs and guitars with precision. It's organized and timelined for easier learning. Was this info helpful? Yes No
-------------------------------------------------------------------------------
                     Untitled (Instrumental) - Seether
-------------------------------------------------------------------------------

Tabbed by: Chris Esp
E-mail: greekgamer17@yahoo.gr

Tuning: Drop C#  (C#G#C#F#A#D#) (Tune your guitar to D# standard then drop the top string to C#)


[INTRO] (0:00-0:12)

D#|-------------------------------------------------------------------|
A#|-------------------------------------------------------------------|
F#|--7h8-11h12-12/14-12--11h12p11-8-7---------------------------------|
C#|--0---0------0-----0-----------0-0-----7-7h8-8-8-8p7-7p5-5--5-5-5--|
G#|---------------------------------------0-0---0-0-0---0---0--0-0-0--|
C#|-------------------------------------------------------------------|

D#|---------------------------------------------------------------------------------|
A#|---------------------------------------------------------------------------------|
F#|--7h8-11h12-12/14-14/17-17p16-16p14-14h16-14--11-11h12-12-12-12p11-11\8-8p7-7-7--|
C#|--0----0-----0-----0-----0-----0-----0-----0---0--0-----0--0--0-----0---0---0-0--|
G#|---------------------------------------------------------------------------------|
C#|---------------------------------------------------------------------------------|


[MAIN RIFF] (0:13-0:37)

D#|---------------------------------|
A#|---------------------------------|
F#|--7h8-8-8-8p7-7p5-5h7-7-7-7/2-2--|
C#|--0---0-0-0---0---0---0-0-0---0--|  x4
G#|---------------------------------| 
C#|---------------------------------|

D#|----------------------------------------------------------------------------------------|
A#|----------------------------------------------------------------------------------------|
F#|--11h12-12-12-12p11-11p9-9h11-11h12-12h14-14h16-16h17-17-17-17p16-16p14-14-14h16-14-14--|
C#|---0-----0--0--0-----0---0-----0-----0-----0-----0-----0--0--0-----0-----0--0-----0--0--|
G#|----------------------------------------------------------------------------------------|
C#|----------------------------------------------------------------------------------------|

D#|----------------------------------------------------------------------------------------------|
A#|----------------------------------------------------------------------------------------------|
F#|--11-11h12-12-12-12p11-11p9-9h11-11h12-12h14-14h16-16h17-17-17-17-17-17-17-17-19-19-19-19-19--|
C#|---0--0-----0--0--0-----0---0-----0-----0-----0-----0-----0--0--0--0--0--0--0--0--0--0--0--0--|
G#|----------------------------------------------------------------------------------------------|
C#|----------------------------------------------------------------------------------------------|


[CHORUS] (x2) (0:38-1:03)

D#|---------------------------------|
A#|---------------------------------|
F#|-----7/8-7-----------------------|
C#|--0--x-x-x--0-0-0-6-6-6-6-5-5h6--|  x3
G#|--0--5/6-5--0-0-0-6-6-6-6-5-5h6--|  
C#|--0---------0-0-0-6-6-6-6-5-5h6--|

D#|------------------------------------------|
A#|------------------------------------------|
F#|-----7/8-8/10-10/12-12\10-10\8-8\7-7/8\7--|
C#|--0--x-x-x--x--x--x--x--x--x-x-x-x-x-x-x--|
G#|--0--5/6-6/-8--8/10-10\-8--8\6-6\5-5/6\5--|
C#|--0---------------------------------------|


[BRIDGE] (1:04-1:16)

D#|-------------------|
A#|-------------------|
F#|-------------------|
C#|--0~------0h1--0~--|
G#|--0~------0h1--0~--|
C#|--0~------0h1--0~--|


[MAIN RIFF] (1:17-1:41)

D#|---------------------------------|
A#|---------------------------------|
F#|--7h8-8-8-8p7-7p5-5h7-7-7-7/2-2--|
C#|--0---0-0-0---0---0---0-0-0---0--|  x4
G#|---------------------------------| 
C#|---------------------------------|

During the part below you can build up with Guitar 2:  
                                                       
D#|-----|            |
A#|-----|            |
F#|--2--|            |  
C#|--0--|  x16   <=  | Guitar 2 (Optional)
G#|-----|            |
C#|-----|            |


D#|----------------------------------------------------------------------------------------|
A#|----------------------------------------------------------------------------------------|
F#|--11h12-12-12-12p11-11p9-9h11-11h12-12h14-14h16-16h17-17-17-17p16-16p14-14-14h16-14-14--|
C#|---0-----0--0--0-----0---0-----0-----0-----0-----0-----0--0--0-----0-----0--0-----0--0--|
G#|----------------------------------------------------------------------------------------|
C#|----------------------------------------------------------------------------------------|

D#|----------------------------------------------------------------------------------------------|
A#|----------------------------------------------------------------------------------------------|
F#|--11-11h12-12-12-12p11-11p9-9h11-11h12-12h14-14h16-16h17-17-17-17-17-17-17-17-19-19-19-19-19--|
C#|---0--0-----0--0--0-----0---0-----0-----0-----0-----0-----0--0--0--0--0--0--0--0--0--0--0--0--|
G#|----------------------------------------------------------------------------------------------|
C#|----------------------------------------------------------------------------------------------|


[CHORUS] (x2) (1:42-2:07)

D#|---------------------------------|
A#|---------------------------------|
F#|-----7/8-7-----------------------|
C#|--0--x-x-x--0-0-0-6-6-6-6-5-5h6--|  x3
G#|--0--5/6-5--0-0-0-6-6-6-6-5-5h6--|  
C#|--0---------0-0-0-6-6-6-6-5-5h6--|

D#|------------------------------------------|
A#|------------------------------------------|
F#|-----7/8-8/10-10/12-12\10-10\8-8\7-7/8\7--|
C#|--0--x-x-x--x--x--x--x--x--x-x-x-x-x-x-x--|
G#|--0--5/6-6/-8--8/10-10\-8--8\6-6\5-5/6\5--|
C#|--0---------------------------------------|


[BRIDGE] (2:08-2:32) 

D#|-------------------|
A#|-------------------|
F#|-------------------|
C#|--0~------0h1--0~--|  x2
G#|--0~------0h1--0~--|
C#|--0~------0h1--0~--|


[PRE-OUTRO] (2:33-2:39)

D#|---------------------------| 
A#|---------------------------|
F#|---------------------------|
C#|--0-0---1-0---0-0-0-0-0-1--|  x2
G#|--0-0---1-0---0-0-0-0-0-1--|
C#|--0-0---1-0---0-0-0-0-0-1--|  


[OUTRO] (x4) (2:40-3:32)

D#|---------------------------|            D#|---------------------------|     
A#|---------------------------|            A#|---------------------------|     
F#|---------------------------|            F#|------------------------5--|     
C#|--0-0---1-0---0-0-0-0-0-1--|  x3  then  C#|--0-0---1-0---0-0-0-0-0-x--|       
G#|--0-0---1-0---0-0-0-0-0-1--|            G#|--0-0---1-0---0-0-0-0-0-3--|     
C#|--0-0---1-0---0-0-0-0-0-1--|            C#|--0-0---1-0---0-0-0-0-0----|     



Have Fun!



************************************

| x  Dead note
| h  Hammer-on
| p  Pull-off
| /  Slide up
| \  Slide down
| ~  Vibrato

************************************
Suggest correction
Give kudos to tab author, rate the tab!
1 2 3 4 5
comments
print report bad tab
guest
You may want to rate the tab now too:
select rating
Wanna post a correction for this tab? Suggest correction