Oops, an error
Loading. Please wait.

Walk Away From The Sun Tab

version 1
version 1

Whole song

Interactive

29,610 views 3 this week
12 commentsread comments
1 2 3 4 5
accurate
x 6
add to favorites
launch autoscroll
font size
0
reset
how to read this tab
guitar tuner
Tab Pro tools
  • play this tab
  • loop segment
  • change instrument
  • show fretboard
  • metronome
×
Best way to learn
"Walk Away From The Sun"
Autoscroll
slow
fast
+/-
esc
set tempo
stop
Difficulty
intermediate
                        Walk away from the Sun - Seether
-------------------------------------------------------------------------------
Eb-tuning..

e|-0--------0--------0----------------0--------0--------0--|
B|-3--------1--------1----------------5(x)-----x--------0--|
G|-2--------2--------0-------OR-------7--------10-------9--|
D|-0--------3--------2----------------7--------10-------10-|
A|-0--------0--------3----------------5-----/--8-----/--10-|
E|------------------------------------------------------8--|

………

e|--0----0--|
B|--1----3--|
G|--2----2--|
D|--3----0--|
A|--0----0--|
E|----------|

………

Bridge thing

e|--------------------------------|
B|--------------------------------|
G|--7---------5-------------------|
D|--7----3----5----5--------------|
A|--5----3----3----5--------------|
E|-------1---------3--------------|

this is the funny solo attempt.

e|---------------------------------------------------------------------------|
B|---------------------------------------------------------------------------|
G|---5--4—-2-—4--5—-/7----5--4--2--2b----5--4--2--4--5--7--9--7--5-----------|
D|------------------------------------------------------------------7---5----|
A|---------------------------------------------------------------------------|
E|---------------------------------------------------------------------------|

e|-----------------------------------------------------------------------|
B|-----------------------------------------------------------------------|
G|---------------------------12br-or something..-------------------------|
D|---------10h12p12---10h12----------------------------------------------|
A|-----------------------------------------------------------------------|
E|--8h10p8---------------------------------------------------------------|


[These are the distant melodies during verse and last chorus I think]

e|--8~-----10~-----5~--|
B|---------------------|
G|---------------------|
D|---------------------|
A|---------------------|
E|---------------------|

e|--8--7-----10--------|
B|--------10-----------|
G|---------------------|
D|---------------------|
A|---------------------|
E|---------------------|

yeah well...at least I tried.

the second solo part is pretty off I guess, but It might give you an idea until someone 
to tab in detail.
comments
print report bad tab
12 comments total. Showing first comments.
0 reply
smirnoff_black wrote on October 27 2007, 07:10 pm

Intro/chorus (strumming pattern not included)
eb|-0--------0--------0-------0---------0-------0-------0-|
Bb|-x--------0--------0-------x---------x-------0-------0-|
Gb|-7-------10--------9-------7-------5/7------10-------9-|
Db|-7-------10--------9-------7-------5/7------10-------9-|
Ab|-5--------8--------7-------5-------3/5-------8-------7-|
Db|-------------------------------------------------------|


Verse
eb|-------------------------------|
Bb|-------------------------------|
Gb|-------------------------------|
Db|-2/3---3---2/3---3---5---3---0-|
Ab|-2/3---3---2/3---3---5---3---0-|
Db|-2/3---3---2/3---3---5---3---0-|


Bridge
eb|------------------------|
Bb|------------------------|
Gb|---------------5--------|
Db|-0------3------5------5-|
Ab|-0------3------3------5-|
Db|-0------3-------------5-|

0 reply
smirnoff_black wrote on October 27 2007, 07:11 pm

update your tab, this is how its played, i was too lazy to do the solo.

0 reply
kennedys1 wrote on October 31 2007, 12:58 am

yeah, smirnoff_black has it there, sounds way more accurate, good start on the tab though dude

I want to post or [tab]
guest
You may want to rate the tab now too:
select rating
Please do not post tabs as comments. Select "correction" instead!