Oops, an error
Loading. Please wait.

Walk Away From The Sun Tab

version 2
version 2

Whole song

Interactive

22,313 views 27 this week
5 commentsread comments
1 2 3 4 5
excellent!
x 4
add to favorites
launch autoscroll
font size
0
reset
how to read this tab
guitar tuner
Tab Pro tools
  • play this tab
  • loop segment
  • change instrument
  • show fretboard
  • metronome
Autoscroll
slow
fast
+/-
esc
set tempo
stop
Difficulty
intermediate
                        Walk away from the Sun - Seether
----------------------------------------------------------------------------Eb-tuning.. 
i'm not sure if this is correct but i spent almost 2 hours listening to the song
to get this all down.i got the as close as i could, please enjoy i did my best,
revise if necessary.

intro/verse
                     walk away from the sun ....
e|-------------------------------------------------------------------------|
B|-------------------------------------------------------------------------|
G|-------------------------7---7--7-7-10-10-10---10-9-9-9--9-5-5-5------5/7|
D|-------------------------7---7--7-7-10-10-10---10-9-9-9--9-5-5-5--5-5-5/7|
A|-------------------------5---5--5-5-8--8--8----8--7-7-7--7-3-3-3--5-5-3/5|
E|-------------------------5---5--5-5-8--8--8----8--7-7-7--7-3-3-3--3-3-3/5|


                                  theres so much left in the air ....
e|-------------------------------------------------------------------------|
B|-------------------------------------------------------------------------|
G|--9/10-10-10--9/10-10-10--9/10-9-7-7-7-777----*7-------------------------|
D|--9/10-10-10--9/10-10-10--9/10-9-7-7-7-777----*7-------------------------|
A|--7/8--8--8---7/8--8--8---7/8--7-5-5-5-555-------------------------------|
E|--7/8--8--8---7/8--8--8---7/8--7-5-5-5-555-------------------------------|
                   * is natural harmonic played on last bar

bridge
  
   
e|-------------------------------------------------------------------------|
B|-------------------------------------------------------------------------|
G|--7--7-7-7--------------5--5-5-5--5-5------------------------------------|
D|--7--7-7-7-3-3--3--3-3--5--5-5-5--5-5--5-5--5-5-5-5----------------------|
A|--5--5-5-5-3-3--3--3-3--3--3-3-3--3-3--5-5--5-5-5-5----------------------|
E|--5--5-5-5-1-1--1--1-1-----------------3-3--3-3-3-3----------------------|

this is the funny solo attempt.(i just stole this from the other tab sorry)

e|---------------------------------------------------------------------------|
B|---------------------------------------------------------------------------|
G|---5--4—-2-—4--5—-/7----5--4--2--2b----5--4--2--4--5--7--9--7--5-----------|
D|------------------------------------------------------------------7---5----|
A|---------------------------------------------------------------------------|
E|---------------------------------------------------------------------------|

e|-----------------------------------------------------------------------|
B|-----------------------------------------------------------------------|
G|---------------------------12br-or something..-------------------------|
D|---------10h12p12---10h12----------------------------------------------|
A|-----------------------------------------------------------------------|
E|--8h10p8---------------------------------------------------------------|


[These are the distant melodies during verse and last chorus I think]

e|--8~-----10~-----5~--|
B|---------------------|
G|---------------------|
D|---------------------|
A|---------------------|
E|---------------------|

e|--8--7-----10--------|
B|--------10-----------|
G|---------------------|
D|---------------------|
A|---------------------|
E|---------------------|
comments
print report bad tab
5 comments total. Showing first comments.
0 reply
White-Trash Wil wrote on May 7 2008, 06:32 pm

seem pretty good, 5*

0 reply
brooklynsoulja1 wrote on March 11 2009, 07:21 pm

i dunno why it would be in e flat
if you translate the tab to E then its the same

0 reply
Mainer wrote on March 28 2010, 05:04 pm

try it in drop c. seems to sound good

I want to post or [tab]
guest
You may want to rate the tab now too:
select rating
Please do not post tabs as comments. Select "correction" instead!