Oops, an error
Loading. Please wait.

Waste Tab

version 1
version 1

Whole song

Interactive

10,187 views 3 this week
no commentswrite comment
1 2 3 4 5
accurate
x 6
add to favorites
launch autoscroll
font size
0
reset
how to read this tab
guitar tuner
Tab Pro tools
  • play this tab
  • loop segment
  • change instrument
  • show fretboard
  • metronome
×
Best way to learn
"Waste"
Autoscroll
slow
fast
+/-
esc
set tempo
stop
Contributor
Difficulty
novice
                                                                    WASTE - SEETHER

Tabbed by:Travis
Email:tewells27@yahoo.com

Tuning: Standard 7 string Guitar w/clean tone
The lead is done on a 6-string if you want the lead email me and let me know.He plays it 
a 7-string I've watched him play it but you can arrange it for a 6-string not 
song.Enjoy!


  Intro/Verse  Chords D5, Gm
|----------------------------------------------------------------------------|
|--3---3---3--3h5-5-3h5h3--3---3--------3--------------------------3-3h5-----|
|--2---2-2----2---2-----2--3--------3-----3---3-----3----------2---2-2-------|
|--0---0-0----0---0-----0--------5----5-----5-----5---5------0---0-0-0-------|
|----------------------------------------------------------0-----------------|
|----------------------------------------------------------------------------|
|----------------------------------------------------------------------------|

                                                                                         
 Repeat..............
|----------------------------------------------------------------------------|
|-5--3h5h3--3--3---------5h3-3-----------------------------------------------|
|-2------2--3-------3----------3-3--3----------------------------------------|
|-0------0-------5----5------------5--5--------------------------------------|
|----------------------------------------------------------------------------|
|----------------------------------------------------------------------------|
|----------------------------------------------------------------------------|

  Pre-Chorus...Chords B5,Bb(9)
|-----------------------------------------------------------------------------|
|--0--0------------------------------------------------------------0----------|
|--4--4--------------2-----------2/6-----6---------------------2---4----------|
|--4--4--0-------------0-----0--------0---------0------------------4----------|
|--2--2-----------2-----------------------------------------2------2----------|
|-----------0h2-3---------3------3/6---------6-------0h2-3--------------------|
|--0--0------------------------------------------------------------0----------|

 Chorus...Chords
     D           Gm
|--x------3-----------------------------------------------------------------|
|--3------3-----------------------------------------------------------------|
|--2------3-----------------------------------------------------------------|
|--0------5-----------------------------------------------------------------|
|--0------5-----------------------------------------------------------------|
|--2------3-----------------------------------------------------------------|
|--3------3-----------------------------------------------------------------|

  Interlude Chords....Go a-way_____________________
     B5         Bb(9)      D5        Gm
|--x------x-----x-----3-----------------------------------------------------|
|--0------x-----3-----3-----------------------------------------------------|
|--4------5-----2-----3-----------------------------------------------------|
|--4------0-----0-----5-----------------------------------------------------|
|--2------x-----x-----x-----------------------------------------------------|
|--x------6-----x-----x-----------------------------------------------------|
|--0------x-----x-----x-----------------------------------------------------|

Outro Chords..D,Gm

| /  slide up
| \  slide down
| h  hammer-on
| p  pull-off
| ~  vibrato
| +  harmonic
| x  Mute note
comments
print report bad tab
I want to post or [tab]
guest
You may want to rate the tab now too:
select rating
Please do not post tabs as comments. Select "correction" instead!