Oops, an error
Loading. Please wait.

Weak Tab

version 1
version 1

Whole song

Interactive

97 views 6 this week
no commentswrite comment
1 2 3 4 5
2 more votes to show rating
add to favorites
launch autoscroll
font size
0
reset
how to read this tab
guitar tuner
Autoscroll
slow
fast
+/-
esc
set tempo
stop
Help us to improve Ultimate-Guitar.com Take our survey!
×
Author
Difficulty
Tuning
novice
D A D G B E
-------------------------------------------------------------------------------
                             WEAK - Seether
-------------------------------------------------------------------------------
Tabbed by: PolishWoolf


VERSE:

No more love to purchase...
e|---------------------------------------|
B|---------------------------------------|
G|---------------------------------------|
D|-x-x-0-0-0-0-3-3-3-3-3-3-5-5-5-5-3-3-3-|  x3
A|-x-x-0-0-0-0-3-3-3-3-3-3-5-5-5-5-3-3-3-|  (repeat without muted notes)
D|-x-x-0-0-0-0-3-3-3-3-3-3-5-5-5-5-3-3-3-|

No more obligations...
e|-----------------------------------|
B|-----------------------------------|
G|-----------------------------------|
D|-0-0-0-0-3-3-3-3-3-3-5-5-5-5-5-5-5-|  
A|-0-0-0-0-3-3-3-3-3-3-5-5-5-5-5-5-5-|
D|-0-0-0-0-3-3-3-3-3-3-5-5-5-5-5-5-5-|


PRE-CHORUS:

Uuuuuu I just want to be alone...
e|---------------------------------------------------------|
B|---------------------------------------------------------|
G|---------------------------------------------------------|
D|-8-8-8-8-8-8-8-8-8-5-5-5-5-5-5-5-5-5-8-8-8-8-8-8-8-8-8-5-|
A|-8-8-8-8-8-8-8-8-8-5-5-5-5-5-5-5-5-5-8-8-8-8-8-8-8-8-8-5-|
D|-8-8-8-8-8-8-8-8-8-5-5-5-5-5-5-5-5-5-8-8-8-8-8-8-8-8-8-5-|


CHORUS

When I get weak...
e|------------------------------------------|
B|------------------------------------------|
G|--------------------------5-5-5-5-5-5-----|
D|-x-x--x-0-0-0-0-3-3-3-3-3-5-5-5-5-5-5-5-3-|  x6
A|-x-x--x-0-0-0-0-3-3-3-3-3-3-3-3-3-3-3-5-3-|  (repeat without muted notes)
D|-x-x--x-0-0-0-0-3-3-3-3-3-------------5-3-|

Lead
e|-10----12----13-12-10-----10----12----13-15-13p12-10-|
B|----10----10----------10-----10----10----------------|
G|-----------------------------------------------------|
D|-----------------------------------------------------|
A|-----------------------------------------------------|
D|-----------------------------------------------------|

Solo
e|---------------------------------------------------------------------|
B|---------------------------------------------------------------------|
G|-----------------------12-14-12b14(12)----12/14-14-14-15-14h15p14-12-|
D|----12----12-14-15--15-----------------12----------------------------|
A|-12----12------------------------------------------------------------|
D|---------------------------------------------------------------------|

e|----------------------------------------------------------------------|
B|----------------------------------------------------------------------|
G|-----------------------12-14-12b14(12)----12/14-14-12b14(12)----------|
D|----12----12-14-15--15-----------------12--------------------12/14/12-|
A|-12----12-------------------------------------------------------------|
D|----------------------------------------------------------------------|

Rhythm guitar in the solo is the same chords as the pre-chorus.

************************************

| x   Dead note
| g   Grace note
| (n) Ghost note
| h   Hammer-on
| p   Pull-off
| r   Release
| >   Accented note
| t   Tapping
| b   Bend
| br  Bend release
| pb  Pre-bend
| pbr Pre-bend release
| /   Slide up
| \   Slide down
| ~   Vibrato
| s   Slap
| P   Pop
| PM  Palm mute
| TR  Trill
| N   Tremolo

************************************
Suggest correction
Give kudos to tab author, rate the tab!
1 2 3 4 5
comments
print report bad tab
guest
You may want to rate the tab now too:
select rating
Wanna post a correction for this tab? Suggest correction