Oops, an error
Loading. Please wait.

World Falls Away Bass Tab

version 1
version 1

Whole song

Interactive

341 views 3 this week
1 commentread comment
1 2 3 4 5
please rate
add to favorites
launch autoscroll
font size
0
reset
guitar tuner
Tab Pro tools
  • play this tab
  • loop segment
  • change instrument
  • show fretboard
  • metronome
×
Best way to learn
"World Falls Away"
Autoscroll
slow
fast
+/-
esc
set tempo
stop
Contributor
Difficulty
intermediate
Seether - Worlds falls away
Album: Karma And Effect

bass tab

by : doky 2007
taquilleros_de_sudamerica_maroyu_el_grupo_tropical_del_momento@hotmail.com

5-stringed bass
G D A E B

   INTRO
G-|------|------------------|
D-|------|------------------|
A-|------|------------------|
E-|-5555-|--------2-2-22-44-|
B-|------|-4-4-44-----------|
    *A*          *B*                                                           

   VERSO
G-|---------------|
D-|---------------|
A-|-666666-999999-|
E-|---------------|
B-|---------------|
                                                                              
   PRE-CORO = *A*

   CORO = *B*

   MIDDLE
G-|-----------------|-----------|----------------|
D-|-----------------|-----------|----------------|
A-|-----------------|-----------|-66----99-------|
E-|-5555-44---------|-----------|-------------99-|
B-|---------222-424-|-----------|----------------|
                      + verso +                                                

   FIN
G-|-----------|-----------|---|---|
D-|-----------|-----------|---|---|
A-|-----------|-----------|---|---|
E-|-----------|------2222-|---|---|
B-|-4444-3333-|-4444------|---|-4-|
                            +                                                  

Mando congratulaciones Al Samir Pacheco de QB 2004 que esta cada vez 
mas looooooco y da miedo aunque el dice que va a poner una 
tienda de crank yankers en el futuro para que vayamos a salutarle.

doky2007
comments
We did not receive enough feedback on this tab! Please rate:
print report bad tab
1 2 3 4 5
1 comment total.
0 reply
Googeforlife wrote on February 13 2008, 06:49 pm

Good tab, one thing missing. The verse goes:
G-|---------------|---------------|
D-|---------------|---------------|
A-|-666666-999999-|-666666-9999---|
E-|---------------|------------99-|
B-|---------------|---------------|

Play that twice, then play the second half four more times and thats the whole verse

I want to post or [tab]
guest
You may want to rate the tab now too:
select rating
Please do not post tabs as comments. Select "correction" instead!