Oops, an error
Loading. Please wait.

World Falls Away Tab

version 3
version 3

Whole song

Interactive

1,375 views 3 this week
1 commentread comment
1 2 3 4 5
please rate
add to favorites
launch autoscroll
font size
0
reset
how to read this tab
guitar tuner
Autoscroll
slow
fast
+/-
esc
set tempo
stop
Help us to improve Ultimate-Guitar.com Take our survey!
×
Author
Tuning: Drop D
1-e
2-b
3-g
4-d
5-a
6-d

this is my first tab, so go easy

INTRO GUITAR 1+2
e|-----------------------------------------------------------------|
b|-----------------------------------------------------------------|
g|--------------9-----------------9-----------------9--------------|
d|--8-8-8-8--9b---r9--8-8-8-8--9b---r9--8-8-8-8--9b---r9--8-8-8-8--|
a|--8-8-8-8-----------8-8-8-8-----------8-8-8-8-----------8-8-8-8--|
d|--8-8-8-8-----------8-8-8-8-----------8-8-8-8-----------8-8-8-8--|

(intro continued guitar 1)
e|----------------------7-10-14---------------------10-14p12-----|
b|--------11---11-9-9-9---------------11---11-9-9-9----------10--|
g|--8-8-8----8------------------8-8-8----8-----------------------|
d|---------------------------------------------------------------|
a|---------------------------------------------------------------|
d|---------------------------------------------------------------|

(intro continued guitar 1)
e|----------------------7-10-14--------------------|
b|--------11---11-9-9-9---------------11---11-9br--|
g|--8-8-8----8------------------8-8-8----8---------|
d|-------------------------------------------------|
a|-------------------------------------------------|
d|-------------------------------------------------|

(intro continued guitar 2)
e|--------------------------------------------------------------------| (x2)
b|--------------------------------------------------------------------|
g|--------------------------------------------------------------------|
d|--2-2--2-2-2--2-5-5--5-5s7-7-7-7--2-2--2-2-2--2-5-5--5-5-x-0-0-0-0--|
a|--2-2--2-2-2--2-5-5--5-5s7-7-7-7--2-2--2-2-2--2-5-5--5-5-x-0-0-0-0--|
d|--2-2--2-2-2--2-5-5--5-5s7-7-7-7--2-2--2-2-2--2-5-5--5-5-x-0-0-0-0--|

VERSE GUITAR 1
e|------------------------------| (x8)
b|------------------------------|
g|---------------------------7--|
d|--------9p8--------8h9p8-6----|
a|--6s7-9------6s7-9------------|
d|------------------------------|

VERSE GUITAR 2 (comes in after x4 of guitar 1)
      |only repeat this|
e|----|----------------| (x4)
b|----|----------------|
g|----|----------------|
d|----|----------------|
a|--4-|-4-4s6---4-2-2--|
d|----|----------------|

PRE-CHORUS GUITAR 1+2
e|-----------------------------------------------------------------|
b|-----------------------------------------------------------------|
g|--------------9-----------------9-----------------9--------------|
d|--8-8-8-8--9b---r9--8-8-8-8--9b---r9--8-8-8-8--9b---r9--8-8-8-8--|
a|--8-8-8-8-----------8-8-8-8-----------8-8-8-8-----------8-8-8-8--|
d|--8-8-8-8-----------8-8-8-8-----------8-8-8-8-----------8-8-8-8--|

CHORUS GUITAR 1+2
e|--------------------------------------------------------------------| (x2)
b|--------------------------------------------------------------------|
g|--------------------------------------------------------------------|
d|--2-2--2-2-2--2-5-5--5-5s7-7-7-7--2-2--2-2-2--2-5-5--5-5-x-0-0-0-0--|
a|--2-2--2-2-2--2-5-5--5-5s7-7-7-7--2-2--2-2-2--2-5-5--5-5-x-0-0-0-0--|
d|--2-2--2-2-2--2-5-5--5-5s7-7-7-7--2-2--2-2-2--2-5-5--5-5-x-0-0-0-0--|

POST-CHORUS GUITAR 1
e|----------------------10-14p12-----------------------|
b|--------11---11-9-9-9----------10-------11---11-9br--|
g|--8-8-8----8----------------------8-8-8----8---------|
d|-----------------------------------------------------|
a|-----------------------------------------------------|
d|-----------------------------------------------------|

POST-CHORUS GUITAR 2
e|--------------------------------------------------------------------|
b|--------------------------------------------------------------------|
g|--------------------------------------------------------------------|
d|--2-2--2-2-2--2-5-5--5-5s7-7-7-7--2-2--2-2-2--2-5-5--5-5-x-0-0-0-0--|
a|--2-2--2-2-2--2-5-5--5-5s7-7-7-7--2-2--2-2-2--2-5-5--5-5-x-0-0-0-0--|
d|--2-2--2-2-2--2-5-5--5-5s7-7-7-7--2-2--2-2-2--2-5-5--5-5-x-0-0-0-0--|

VERSE GUITAR 1
e|------------------------------| (x8)
b|------------------------------|
g|---------------------------7--|
d|--------9p8--------8h9p8-6----|
a|--6s7-9------6s7-9------------|
d|------------------------------|

VERSE GUITAR 2 (comes in after x4 of guitar 1)
      |only repeat this|
e|----|----------------| (x4)
b|----|----------------|
g|----|----------------|
d|----|----------------|
a|--4-|-4-4s6---4-2-2--|
d|----|----------------|

PRE-CHORUS GUITAR 1+2
e|-----------------------------------------------------------------|
b|-----------------------------------------------------------------|
g|--------------9-----------------9-----------------9--------------|
d|--8-8-8-8--9b---r9--8-8-8-8--9b---r9--8-8-8-8--9b---r9--8-8-8-8--|
a|--8-8-8-8-----------8-8-8-8-----------8-8-8-8-----------8-8-8-8--|
d|--8-8-8-8-----------8-8-8-8-----------8-8-8-8-----------8-8-8-8--|

CHORUS GUITAR 1+2
e|--------------------------------------------------------------------| (x4)
b|--------------------------------------------------------------------|
g|--------------------------------------------------------------------|
d|--2-2--2-2-2--2-5-5--5-5s7-7-7-7--2-2--2-2-2--2-5-5--5-5-x-0-0-0-0--|
a|--2-2--2-2-2--2-5-5--5-5s7-7-7-7--2-2--2-2-2--2-5-5--5-5-x-0-0-0-0--|
d|--2-2--2-2-2--2-5-5--5-5s7-7-7-7--2-2--2-2-2--2-5-5--5-5-x-0-0-0-0--|

INTERLUDE GUITAR 1
e|--------------------------------------| (x4)
b|--------------------------------12br--|
g|--------------------------------12br--|
d|--7-7-7-7s5-5-5-5-x-2-2-2-2-2-2-------|
a|--7-7-7-7s5-5-5-5-x-2-2-2-2-2-2-------|
d|--7-7-7-7s5-5-5-5-x-2-2-2-2-2-2-------|

(interlude continued guitar 1)
e|-----------------------------------------------11--| (x8)
b|--11-11-11-11h12p11-11----11-11-11-11h12p11-11-----|
g|-----------------------11--------------------------|
d|---------------------------------------------------|
a|---------------------------------------------------|
d|---------------------------------------------------|

INTERLUDE GUITAR 2
e|---------------------------------------| (x4)
b|---------------------------------------|
g|---------------------------------------|
d|--7-7-7-7s5-5-5-5-x-2-2-2-2-2-2-3-2-3--|
a|--7-7-7-7s5-5-5-5-x-2-2-2-2-2-2-3-2-3--|
d|--7-7-7-7s5-5-5-5-x-2-2-2-2-2-2-3-2-3--|

(interlude continued guitar 2)
e|-------------------| (x4) e|------------| (x4)
b|-------------------|      b|------------|
g|--9b-9b-11b-12s14--|      g|--9--11-12--|
d|-------------------|      d|------------|
a|--7b-7b--9b-10s12--|      a|--7---9-10--|
d|-------------------|      d|------------|

SOLO GUITAR 1
e|------------------------------------------------------------------------|
b|------------------------------------------------------------------------|
g|------------------------------------------------------------------------|
d|------------------------------------------------------------------------|
a|--9s8-8s9-9s11-11s12-12s11-11s9-9s8-8s9-9s6-6---9s7-6s7-7s9-9s11-11s12--|
d|------------------------------------------------------------------------|

(solo continued guitar 1)
e|--------------------------------------------------------------------------|
b|--------------------------------------------------------------------------|
g|--------------------------------------------------------------------------|
d|--------------------------------------------------------------------------|
a|--12s11-11s9-9s7-7s4-4---9s7-6s7-7s9-9s11-11s12-12s11-11s9-9s7-7s9-9s6-6--|
d|--------------------------------------------------------------------------|

(solo continued guitar 1)
e|-----------------------------------|
b|-----------------------------------|
g|-----------------------------------|
d|-----------------------------------|
a|--9s7-6s7-7s9-9s11-11-12-10-13-16--|
d|-----------------------------------|

SOLO GUITAR 2
e|--------------------------------------------------------------------| (x2)
b|--------------------------------------------------------------------|
g|--------------------------------------------------------------------|
d|--2-2--2-2-2--2-5-5--5-5s7-7-7-7--2-2--2-2-2--2-5-5--5-5-5-0-0-0-0--|
a|--2-2--2-2-2--2-5-5--5-5s7-7-7-7--2-2--2-2-2--2-5-5--5-5-5-0-0-0-0--|
d|--2-2--2-2-2--2-5-5--5-5s7-7-7-7--2-2--2-2-2--2-5-5--5-5-5-0-0-0-0--|

CHORUS GUITAR 1+2
e|--------------------------------------------------------------------| (x4)
b|--------------------------------------------------------------------|
g|--------------------------------------------------------------------|
d|--2-2--2-2-2--2-5-5--5-5s7-7-7-7--2-2--2-2-2--2-5-5--5-5-x-0-0-0-0--|
a|--2-2--2-2-2--2-5-5--5-5s7-7-7-7--2-2--2-2-2--2-5-5--5-5-x-0-0-0-0--|
d|--2-2--2-2-2--2-5-5--5-5s7-7-7-7--2-2--2-2-2--2-5-5--5-5-x-0-0-0-0--|

POST-CHORUS GUITAR 1
e|----------------------7-10-14---------------------10-14p12-----|
b|--------11---11-9-9-9---------------11---11-9-9-9----------10--|
g|--8-8-8----8------------------8-8-8----8-----------------------|
d|---------------------------------------------------------------|
a|---------------------------------------------------------------|
d|---------------------------------------------------------------|

(post-chorus continued guitar 1)
e|----------------------7-10-14--------------------|
b|--------11---11-9-9-9---------------11---11-9br--|
g|--8-8-8----8------------------8-8-8----8---------|
d|-------------------------------------------------|
a|-------------------------------------------------|
d|-------------------------------------------------|

POST-CHORUS GUITAR 2
e|--------------------------------------------------------------------| (x2)
b|--------------------------------------------------------------------|
g|--------------------------------------------------------------------|
d|--2-2--2-2-2--2-5-5--5-5s7-7-7-7--2-2--2-2-2--2-5-5--5-5-x-0-0-0-0--|
a|--2-2--2-2-2--2-5-5--5-5s7-7-7-7--2-2--2-2-2--2-5-5--5-5-x-0-0-0-0--|
d|--2-2--2-2-2--2-5-5--5-5s7-7-7-7--2-2--2-2-2--2-5-5--5-5-x-0-0-0-0--|

OUTRO GUITAR 1+2
e|--------------------------------------------------------------------|
b|--------------------------------------------------------------------|
g|--------------------------------------------------------------------|
d|--x-2-2-2-2--x-1-1-1-1--x-2-2-2-2--x-5-5-5-5--x-2-2-2-2--x-1-1-1-1--|
a|--x-2-2-2-2--x-1-1-1-1--x-2-2-2-2--x-5-5-5-5--x-2-2-2-2--x-1-1-1-1--|
d|--x-2-2-2-2--x-1-1-1-1--x-2-2-2-2--x-5-5-5-5--x-2-2-2-2--x-1-1-1-1--|

(outro continued guitar 1+2)
e|-------------------------------|
b|-------------------------------|
g|-------------------------------|
d|--x-2-2-2-2--x-5-5-5-5-5-x-2\--|
a|--x-2-2-2-2--x-5-5-5-5-5-x-2\--|
d|--x-2-2-2-2--x-5-5-5-5-5-x-2\--|

there you go...i did it as accurately as i could cuz i tabbed it for my band so i had motivation

=============================================================================
=============================================================================
Legend
h - hammer on
p - pull off
s - slide
b - bend
r - release bend
x - palm mute
\ - slide down to nothing
Suggest correction
What's this?
You can suggest a correction to this tab. Community and Mods will review your correction and vote to approve or reject it.
comments
We did not receive enough feedback on this tab! Please rate:
print report bad tab
1 2 3 4 5
1 comment total.
0 reply
aslashwannabee 295 wrote on March 5 2008, 09:49 pm

sorry guys...in the 2nd part of the interlude, you have to add an extra 11 after the 11h12p11 on the same string...so instead of...

b|--11-11-11-11h12p11---
g|--------------------11

its...

b|--11-11-11-11h12p11-11---
g|-----------------------11

and for this riff for all the guitars...

--------------------------------------------------------------------|
--------------------------------------------------------------------|
--------------------------------------------------------------------|
--2-2--2-2-2--2-5-5--5-5s7-7-7-7--2-2--2-2-2--2-5-5--5-5-x-5-5-5-5--|
--2-2--2-2-2--2-5-5--5-5s7-7-7-7--2-2--2-2-2--2-5-5--5-5-x-5-5-5-5--|
--2-2--2-2-2--2-5-5--5-5s7-7-7-7--2-2--2-2-2--2-5-5--5-5-x-5-5-5-5--|

its...

--------------------------------------------------------------------|
--------------------------------------------------------------------|
--------------------------------------------------------------------|
--2-2--2-2-2--2-5-5--5-5s7-7-7-7--2-2--2-2-2--2-5-5--5-5-x-0-0-0-0--|
--2-2--2-2-2--2-5-5--5-5s7-7-7-7--2-2--2-2-2--2-5-5--5-5-x-0-0-0-0--|
--2-2--2-2-2--2-5-5--5-5s7-7-7-7--2-2--2-2-2--2-5-5--5-5-x-0-0-0-0--|

note the very end changes from 5 to 0

guest
You may want to rate the tab now too:
select rating
Please do not post tabs as comments. Select "correction" instead!