Oops, an error
Loading. Please wait.

Corre Corre Corre Bass

67 views 1 this week
no commentswrite comment
1 2 3 4 5
3 more votes to show rating
add to favorites
×
Save as Personal and add changes to this tab that will be seen only by you. Learn more ›
×
You can save this tab as Personal to edit and correct it or add notes. All changes will be seen only by you. Learn more »
save as personal
new!
launch autoscroll
font size
0
reset
guitar tuner
Autoscroll
slow
fast
+/-
esc
set tempo
stop
Intro:

G|-----------------|
D|-----------------|
A|-4/55555-4/55555-|
E|-----------------|

G|-------------------|
D|-------------------|
A|-5555555-----------|
E|---------7777-5555-|

Caminando por ahi
corre corre corre dulce nena

G|-------------------|
D|-------------------|
A|-5555555-----------|
E|---------3333-5555-|

esperando decirdir
corre corre corre dulce nena

G|---------------------|
D|---------------------|
A|-----------55555/999-|
E|-3333-5555-----------|

no veo moteles por aki

G|-------------------|
D|-------------------|
A|-5555555-----------|
E|---------7777-5555-|

corre corre corre dulce nena

G|-------------------|
D|-------------------|
A|-5555555-----------|
E|---------3333-5555-|

corre corre corre dulce nena

G|-------------------|
D|-------------------|
A|-5555555-----------|
E|---------7777-5555-|

corre corre corre dulce nena

G|-----------------------|
D|-----------------------|
A|-----------4/555-4/555-|
E|-3333-5555-------------|

no veo moteles por aki


G|-------------------|
D|-------------------|
A|-5555555-----------|
E|---------7777-5555-|

estoy arto de andar
corre corre corre dulce nena

G|-------------------|
D|-------------------|
A|-5555555-----------|
E|---------3333-5555-|

yo solo kiero entrar
corre corre corre dulce nena

G|---------------------|
D|---------------------|
A|-----------55555/999-|
E|-3333-5555-----------|

no veo moteles por aki

G|-------------------|
D|-------------------|
A|-5555555-----------|
E|---------7777-5555-|

corre corre corre dulce nena

G|-------------------|
D|-------------------|
A|-5555555-----------|
E|---------3333-5555-|

corre corre corre dulce nena

G|-------------------|
D|-------------------|
A|-5555555-----------|
E|---------7777-5555-|

corre corre corre dulce nena


G|---------------------------|
D|---------------------------|
A|-----------55555-----------|
E|-3333-5555-------77-55-333-|

no veo moteles por akiiiiiiii
no veo moteles por akiiiiiiii

G|-------------------------|---|
D|-------------------------|---|
A|------------4/555-4/5555-|-5-|
E|-3333-5------------------|---|

no veo moteles por aki
Suggest correction
Give kudos to tab author, rate the tab!
1 2 3 4 5
comments
print report bad tab
guest
Wanna post a correction for this tab? Suggest correction