Oops, an error
Loading. Please wait.

Desamor Bass Tab

28 views 1 this week
no commentswrite comment
1 2 3 4 5
3 more votes to show rating
add to favorites
launch autoscroll
font size
0
reset
guitar tuner
Autoscroll
slow
fast
+/-
esc
set tempo
stop
Help us to improve Ultimate-Guitar.com Take our survey!
×
Intro:

|-----------------------------------|
|-----------------------------------|
|--777777777777777------------------| x2
|------------------5555555555555555-|

a veces creo en tu amor...
|------------------|
|------------------|
|-7777777777777777-| x2
|------------------|
en tus ojos...
|------------------|
|------------------|
|-4444444444444444-| x2
|------------------|

en desamor...
|-----------------------------------|
|-----------------------------------|
|-----------------------------------|
|-5555555555555555-77777777---------|

Me pongo....                              nadie para amar..
|------------------------------------------------------------|
|------------------------------------------------------------|
|-777777-666666-444444-222222--------------------------------| x2
|-----------------------------5555555555555555-7777777777777-|

|------------|
|------------|
|-6h7-77-777-| x3
|------------|

a veces creo en tu amor...
|------------------|
|------------------|
|-7777777777777777-| x2
|------------------|
en tus ojos...
|------------------|
|------------------|
|-4444444444444444-| x2
|------------------|

en desamor...
|-----------------------------------|
|-----------------------------------|
|-----------------------------------|
|-5555555555555555-7777777777777777-|

Me pongo....                              nadie para amar..
|------------------------------------------------------------|
|------------------------------------------------------------|
|-777777-666666-444444-222222--------------------------------| x2
|-----------------------------5555555555555555-7777777777777-|

|------------------------------------|
|------------------------------------|
|-7-7-7-7-7-7-7-7-7-7--4-4-4-4-7-7-7-| x2
|------------------------------------|

la otra noche...
|------------------------------------------------------------------|
|------------------------------------------------------------------|
|-7-7-7-7-7-7-7-7-7-6-6-6-6-6-6-6--------------------7-7-7-7-7-7-7-|
|---------------------------------5-5-5-5-5--7-7-7-7---------------|

yo estaba tomando algo...                 quise acercarme un poco...
|--------------------------------|-----------------------------------|
|--------------------------------|-----------------------------------|
|-7-7-7-7-7-7-7-7-7-6-6-6-6-6-6-6|-------------------777-666-444-222-| x3
|--------------------------------|5-5-5-5-5--7-7-7-7-----------------|

quise acercarme...  el viento te llevo....
|---------------|-----------------------------------------|
|---------------|-----------------------------------------|
|---------------|--77777777777777-44444444444444-7~~------|
|-5~~----7~~----|-----------------------------------------|

ACLARO:
No anote las veces que exactas
que se toca una nota, pero
en la rola se escucha.

Entre cada cambio de nota
toquen una vez al aire, suena
mejor.. camara suerte.
Suggest correction
Give kudos to tab author, rate the tab!
1 2 3 4 5
comments
print report bad tab
guest
You may want to rate the tab now too:
select rating
Wanna post a correction for this tab? Suggest correction