Oops, an error
Loading. Please wait.

En Mi Cama Tab

16 views 1 this week
no commentswrite comment
1 2 3 4 5
3 more votes to show rating
add to favorites
launch autoscroll
font size
0
reset
how to read this tab
guitar tuner
×
Best way to learn
"En Mi Cama"
Autoscroll
slow
fast
+/-
esc
set tempo
stop
         G                  C
Cuanto tiempo estubiste dormida
         D                     G
con tu piel recostada en mi almohada
  G F#m  Em              C
Cuantas veces te dije te amo
     D                    G
pero eso a ti no te importaba

(A partir de aki son kintas)

    G                  C
Estare esperando el camino
      D                 G
para poder mirar yo tu cara
 G  F#   E                    C
Ya no aguanto las noches de frio
        D                G
y tu ausencia consume mi alma

        G                    C
Si tu vuelves yo estare despierto
     D                    G
esperando el sol de madrugada
  G  F# E                   C
Cuando halla agua en el desierto
        D                    G
no estara tu recuerdo en mi cama

SOLO:

e|-----------3-2-3-2--------2----2---2-2-----|
B|-3-3-3---3---------5--5-5---5----5----5-3--|
G|-------4-----------------------------------|
D|-------------------------------------------|
A|-------------------------------------------|
E|-------------------------------------------|

e|-3-3-3-2-3-3-2-3-2-5--2-2-2-2-3-5-3-2-3----|
B|-------------------------------------------|
G|-------------------------------------------|
D|-------------------------------------------|
A|-------------------------------------------|
E|-------------------------------------------|


        G                   C
Si no vuelves yo estare perdido
       D                  G
confundido en un mar de arena
G F# E                        C
Esperando que llegue agua al rio
       D                G
y se lleve mi loca tristeza

     G                       C
Nena se que sin ti no hay motivo
         D                    G
que me ayudame a aliviar mis ganas
G  F#  E                  C
Estas ganas de seguir yo vivo
      D                    G
como las de tenerte en mi cama


e|-----------3-2-3-2--------2----2---2-2-----|
B|-3-3-3---3---------5--5-5---5----5----5-3--|
G|-------4-----------------------------------|
D|-------------------------------------------|
A|-------------------------------------------|
E|-------------------------------------------|

e|-3-3-3-2-3-3-2-3-2-5--5-5-5-3-5-3-5-5-3----|
B|-------------------------------------------|
G|-------------------------------------------|
D|-------------------------------------------|
A|-------------------------------------------|
E|-------------------------------------------|


Eso es todo. Larga vida al punk-rock!!!
Comentarioz, zugerenzias o petizionez al korreo
chonitoramone_sk8punk@
Suggest correction
Give kudos to tab author, rate the tab!
1 2 3 4 5
comments
print report bad tab
guest
You may want to rate the tab now too:
select rating
Wanna post a correction for this tab? Suggest correction