Oops, an error
Loading. Please wait.

Fantasmas Tab

22 views 1 this week
no commentswrite comment
1 2 3 4 5
3 more votes to show rating
add to favorites
launch autoscroll
font size
0
reset
how to read this tab
guitar tuner
Autoscroll
slow
fast
+/-
esc
set tempo
stop
Help us to improve Ultimate-Guitar.com Take our survey!
×
KE ONDA BANDA ESPERO Y LE ENTIENDAN OK OJALA Y LES LATA ...

e------------------------------
B------------------------------
G------------------------------
D-00-0-999---9--7---2-4-55-4---
A------------------------------
E------------------------------

e------------------------------
B------------------------------
G------------------------------
D-00-0-999---9--7---2-5-2-0----
A------------------------------
E------------------------------

e------------------------------------
B------------------------------------
G------------------------------------
D-22222--432----55555555----797--797-
A------------------------------------
E------------------------------------


e--------------------------------------------------
B--------------------------------------------------
G--------------------------------------------------
D-00-0-999---9--11-11---14--11--12-----------------
A--------------------------------------------------
E--------------------------------------------------

Dm
Y tanto tiempo espere
E5
tirado en mi habitación
Gm                            A5
eh jurado que no volveré a estar bien
Dm
y titubeando al hablar
E5
te diré que hoy me voy
Gm                    A5
que me quedare a tu lado sin tu amor


coro*

Gm                 A5           Dm
y así algún día volare por tu ventana
Gm                   A5          Dm
y así algún día volare por tu balcón
E5
mientras tanto dime nena
Gm                                   A5
si hay alguien que se muere sin tu amor
Gm               A5               Dm
y así algún día volare por tu ventana
Gm            A5                  Dm
y así algún día volare por tu balcón
Em
mientras tanto dime nena
Gm                               A5
si hay alguien que se muere sin tu amor
Gm               A5             Dm Dm Dm Dm
y así algún día volare por tu balcón

SE REPITE LO MISMOS CIRCULOS OK ESPERO Y LES GUSTE BANDA

cuando empieces a extrañar
busca en tu habitación
seguro algo te diga donde estoy
los estigmas ya no están
se fueron no volverán
si me pides que me quede y te vas

y así algún día volare por tu ventana
y así algún día volare por tu balcón
mientras tanto dime nena
si hay alguien que se muere por tu amor
y así algún día volare por tu ventana
y así algún día volare por tu balcón
y así algún día volare por tu ventana
y así algún día volare por tu balcón

AVISO URGENTE; EL MI (E O Em) LO PUDEN HACER EN EL TRATE SIETE
TAMBIEN EN LA DE "NUNKA DEJARE LAS DROGAS"
PARA KE SUENE MAS CHIDO...

E5,E O Em. ESPERO Y LE ENTIENDAN VA CHIDO
GRAX A LA CUERDA PRO EL ESPACIO.

e---7--------
B---7--------
G---7----9---
D---7----9---
A---7--------
E------------
Suggest correction
Give kudos to tab author, rate the tab!
1 2 3 4 5
comments
print report bad tab
guest
You may want to rate the tab now too:
select rating
Wanna post a correction for this tab? Suggest correction