Oops, an error
Loading. Please wait.

Farolito Tab

version 1
version 1

Whole song

92 views 1 this week
no commentswrite comment
1 2 3 4 5
3 more votes to show rating
add to favorites
launch autoscroll
font size
0
reset
how to read this tab
guitar tuner
Autoscroll
slow
fast
+/-
esc
set tempo
stop
Help us to improve Ultimate-Guitar.com Take our survey!
×
ps qui sta esta tablatura de
farolito espero que le entiendo
pus creeo que esta mui facil
i esta dedicada para ale.
  arriba la cervaza i el pank rack

INTRO:

e|----------------------------------------------|
B|----------------------------------------------|
G|---9/11-9-7-2----11-9-7-4-3/5-5/7-------------|
D|----------------------------------------------|
A|----------------------------------------------|
E|----------------------------------------------|


e|----------------------------------------------|
B|---11-11-11-9-2--9-9-11-11-9-4-3/4-5/7--------|
G|----------------------------------------------|
D|----------------------------------------------|
A|----------------------------------------------|
E|----------------------------------------------|


    SOL           SI
e|-----3----3---------2-----------2-------
B|------0----0----------3-----------3-----
G|----0--0-0--0-----4-----4-----4-----4---
D|----------------------------------------
A|----------------------------------------
E|---3----3-------2-----------2-----------
     Te esperare  kuando salgas del kolegio


    DO                       RE
e|-------0----------0-----------2----2------|
B|---------1----------1----------3----3-----|
G|------0-----0----0-----0------2--2-2--2---|
D|------------------------------------------|
A|------------------------------------------|
E|----0----------0-------------0----0-------|
  kuando salgas del trabajo o de un kafe


         G         B
No llorare kuando des un golpe bajo

        C                      D
Cuando por un buen muchacho me dejes


      SOL           SI
e|-----3----3---------2-----------2-------
B|------0----0----------3-----------3-----
G|----0--0-0--0-----4-----4-----4-----4---
D|----------------------------------------
A|----------------------------------------
E|---3----3-------2-----------2-----------
  Te abrasare    kuando digas ke me amas


     DO                       RE
e|-------0----------0-----------2----2-----|
B|---------1----------1----------3----3----|
G|-----0-----0----0-----0------2--2-2--2---|
D|-----------------------------------------|
A|-----------------------------------------|
E|---0----------0-------------0----0-------|
   kuando digas que me extrañas lo   sabre


 G       DDDD
Como ayer


        G
Y a la luz de aquel farol

      C
Si algun dia buelves amor

       D
Yo te digo aunque bebido

         G  DDDD
Esperare yo

       G
Y ala luna le dire

        C
Ke mui solo me kede

       D
Ke si kiere estar conmigo

       G     D
Ke kon ella iorare


   Solo de guitarra:
e|--8-8--------8-8-8---------------------------
B|-----7-9-7-9-------7-9-7-9-7-7-9-9-10-9-10-9-
G|---------------------------------------------
D|---------------------------------------------
A|---------------------------------------------
E|---------------------------------------------


e|---------------------------
B|--12-12-10-10-9-7-9-5555---
G|---------------------------
D|---------------------------
A|---------------------------
E|---------------------------


e|--8-8--------8-8-8---------------------------
B|-----7-7-9-7-------7-7-9-7-7-7-9-9-10-9-10-9-
G|---------------------------------------------
D|---------------------------------------------
A|---------------------------------------------
E|---------------------------------------------


e|-------------------------------|
B|--12-12-10-10-9-7-9-5555555-9--|
G|-------------------------------|
D|-------------------------------|
A|-------------------------------|
E|-------------------------------|  FIN


       SOL           SI
e|-----3----3---------2-----------2-------
B|------0----0----------3-----------3-----
G|----0--0-0--0-----4-----4-----4-----4---
D|----------------------------------------
A|----------------------------------------
E|---3----3-------2-----------2-----------
   Preguntare   si  te  gusta  komo visto


     DO                       RE
e|-------0----------0-----------2----2------|
B|---------1----------1----------3----3-----|
G|------0-----0----0-----0------2--2-2--2---|
D|------------------------------------------|
A|------------------------------------------|
E|----0----------0-------------0----0-------|
   si te enfada kuando insisto al beber


 G
Te abrasare

    B
Kuando sepa que me mientes

    C                           D
Kuando tengas pretendientes lo sabre


 G       DDDD
komo ayer


        G
Y a la luz de aquel farol

      C
Si algun dia buelves amor

       D
Yo te digo aunque bebido

         G  DDDD
Esperare yo

       G
Y ala luna le dire

        C
Ke mui solo me kede

       D
Ke si kiere estar conmigo

       G     D
Ke kon ella iorare


e|--8-8--------8-8-8---------------------------
B|-----7-9-7-9-------7-9-7-9-7-7-9-9-10-9-10-9-
G|---------------------------------------------
D|---------------------------------------------
A|---------------------------------------------
E|---------------------------------------------
   Y ala lunaaaaaaaaaaaaaa  aaaaaaaaaaa a


e|---------------------------
B|--12-12-10-10-9-7-9-5555---
G|---------------------------
D|---------------------------
A|---------------------------
E|---------------------------
   aaaaaaaaaaaaaaa


e|--8-8--------8-8-8---------------------------
B|-----7-7-9-7-------7-7-9-7-7-7-9-9-10-9-10-9-
G|---------------------------------------------
D|---------------------------------------------
A|---------------------------------------------
E|---------------------------------------------
   Y ala lunaaaaaaaaaaa  aaaaaaaaaaaaaaa


e|-------------------------------|
B|--12-12-10-10-9-7-9-5555555-9--|
G|-------------------------------|
D|-------------------------------|
A|-------------------------------|
E|-------------------------------|
       aaaaaaaaaaaaaaa


               FIN

            ale te amo

para hacer el arpegeo mas facil
haganlo con la posicion de las
notas que estan arriba.
dudas a: inferangel_666@
Suggest correction
Give kudos to tab author, rate the tab!
1 2 3 4 5
comments
print report bad tab
guest
You may want to rate the tab now too:
select rating
Wanna post a correction for this tab? Suggest correction