Oops, an error
Loading. Please wait.

Farolito Tab

version 2
version 2

Whole song

34 views 1 this week
no commentswrite comment
1 2 3 4 5
3 more votes to show rating
add to favorites
launch autoscroll
font size
0
reset
how to read this tab
guitar tuner
Autoscroll
slow
fast
+/-
esc
set tempo
stop
INTRO:
           G         B     C    D
e|--------------------------------|
B|--------------------------------|
G|-7/9-7-5-0---9-7-5-4---3/5--5/7-|
D|--------------------------------|
A|--------------------------------|
E|--------------------------------|
              G              B     C    D
e|----------------------------------------|
B|-8-8-10-8-------8-8-10-8----------------|
G|----------7--------------7-----3/5--5/7-|
D|------------5--------------9------------|
A|----------------------------------------|
E|----------------------------------------|


        G          G         B         B
e|--------3----------3---------2---------2---|
B|------0--0-------0--0------2--2------2--2--|
G|-----0----0-----0----0----4----4----4----4-|
D|----0----------0---------4---------4-------|
A|---2----------2--------2---------2---------|
E|-3----------3------------------------------|
     Te esperare  kuando salgas del kolegio

       C         C        D        D
e|-------0---------0--------2--------2---|
B|-----1--1------1--1-----3--3-----3--3--|
G|----0----0----0----0---2----2---2----2-|
D|---2---------2-------0--------0--------|
A|-3---------3---------------------------|
E|---------------------------------------|
  kuando salgas del trabajo o de un kafe

         G         B
No llorare kuando des un golpe bajo
        C                      D
Cuando por un buen muchacho me dejes

        G          G         B         B
e|--------3----------3---------2---------2---|
B|------0--0-------0--0------2--2------2--2--|
G|-----0----0-----0----0----4----4----4----4-|
D|----0----------0---------4---------4-------|
A|---2----------2--------2---------2---------|
E|-3----------3------------------------------|
    Te abrasare    kuando digas ke me amas

       C         C        D        D
e|-------0---------0--------2--------2---|
B|-----1--1------1--1-----3--3-----3--3--|
G|----0----0----0----0---2----2---2----2-|
D|---2---------2-------0--------0--------|
A|-3---------3---------------------------|
E|---------------------------------------|
   kuando digas que me extrañas lo   sabre

 G         D
Como ayer

        G
Y a la luz de aquel farol
      C
Si algún dia Vuelves amor
       D
Yo te digo aunque bebido
         G    D
Esperare yo

       G
Y ala luna le dire
        C
Ke mui solo me kede
       D
Ke si kiere estar conmigo
       G     D
Ke kon ella iorare

SoloBase: G C D G-D X2

e|-7-7-7---------8-8-8----------|
B|-----------5--------------6---|
G|-------7-7---7--------9-9---9-|
D|------------------------------|
A|------------------------------|
E|------------------------------|

e|--------------------------------------------|
B|-----7-7-7-7/9--7-12-10-8-8-8-10-12-------8-|
G|-7-7--------------------------------7-777---|
D|--------------------------------------------|
A|--------------------------------------------|
E|--------------------------------------------|

(El zolo va doz veces... Facil no?)


        G          G         B         B
e|--------3----------3---------2---------2---|
B|------0--0-------0--0------2--2------2--2--|
G|-----0----0-----0----0----4----4----4----4-|
D|----0----------0---------4---------4-------|
A|---2----------2--------2---------2---------|
E|-3----------3------------------------------|
   Preguntare   si  te  gusta  komo visto

       C         C        D        D
e|-------0---------0--------2--------2---|
B|-----1--1------1--1-----3--3-----3--3--|
G|----0----0----0----0---2----2---2----2-|
D|---2---------2-------0--------0--------|
A|-3---------3---------------------------|
E|---------------------------------------|
   si te enfada kuando insisto al deber

 G
Te abrasare
    B
Kuando sepa que me mientes
    C                           D
Kuando tengas pretendientes lo sabre
 G       D
komo ayer

        G
Y a la luz de aquel farol
      C
Si algun dia vuelves amor
       D
Yo te digo aunque bebido
         G  D
Esperare yo

       G
Y ala luna le dire
        C
Ke mui solo me kede
       D
Ke si kiere estar conmigo
       G     D
Ke kon ella iorare

          G                C
e|-7-7-7---------8-8-8----------|
B|-----------5--------------6---|
G|-------7-7---7--------9-9---9-|
D|------------------------------|
A|------------------------------|
E|------------------------------|
   Y a la lunaaaaaaaaaaaaaaaaaa
     D                  G               D
e|--------------------------------------------|
B|-----7-7-7-7/9--7-12-10-8-8-8-10-12-------8-|
G|-7-7--------------------------------7-777---|
D|--------------------------------------------|
A|--------------------------------------------|
E|--------------------------------------------| x2
  Aaaaaaaaaaaaaaaaaaaaaaaaaaaaaaaaaaaaaaaaaa!!
Suggest correction
Give kudos to tab author, rate the tab!
1 2 3 4 5
comments
print report bad tab
guest
Wanna post a correction for this tab? Suggest correction