Oops, an error
Loading. Please wait.

Joey Ramone Tab

25 views 1 this week
no commentswrite comment
1 2 3 4 5
3 more votes to show rating
add to favorites
×
Save as Personal and add changes to this tab that will be seen only by you. Learn more ›
×
You can save this tab as Personal to edit and correct it or add notes. All changes will be seen only by you. Learn more »
save as personal
new!
launch autoscroll
font size
0
reset
how to read this tab
guitar tuner
Autoscroll
slow
fast
+/-
esc
set tempo
stop
Ke hay banda... aki les paso a dejar una rolita
del ultimo de Seguimos Perdiendo ke pues la neta
esta buena y komo ke te llega, jaja.
Esta facil si le agarran al principio....
CALIFIQUEN.


INTRO:
   E        Emaj7   C#m     B7      A
e|------------------------------------------|
B|------------------------------------------|aki en LA el arpegio
G|-----9-------9-------6-------4------------|se hace en el acorde
D|---9---9---9---9---6---6---4---4-----7----|completo hasta llegar
A|-7-------6-------4-------2---------7---7--|al quinto traste de la
E|---------------------------------5--------|primera cuerda.


  E        Emaj7   C#m     B7      A
e|------------------------------------------|
B|------------------------------------------|
G|-----9-------9-------6-------4------------|
D|---9---9---9---9---6---6---4---4-----7----|
A|-7-------6-------4-------2---------7---7--|
E|---------------------------------5--------|


   G#m   F#m   E
e|------------------------------0-------------------0--|
B|--------------------0-0---------0---------0----------|
G|--------------------------------------1--------------|
D|-----6-----4-----2----------2-----------2-------2----|
A|---6-----4-----2----------2---------2---------2------|
E|-4-----2-----0----------0---------0---------0--------|


***Ezte es mi modo de sakar el arpegio, pero para eso puse los
acordes de cada cambio para ke ustedez lo saken komo se les
haga mejor.***


E                         A
Aunque han pasado algunos años
E                    A     B7
desde que desidiste dejarnos
E                    A
aun no he podido evitarlo,
E                     A           B7
dejo correr las lagrimas con tu voz


        E  Emaj7  C#m  B7     A
Joey Ramone,             aun no
        E  Emaj7  C#m  B7     A G#m F#m  E
Joey Ramone,             aun no,    aun no.


E                     A
Yo estaba solo en el mundo
E                      A
hasta que descubri tu voz
          B7
y me acompaño.

E                   A
Tus melodias se llevaron
E
todos mis dias tristes
A        B7
y el dolor.


        E  Emaj7  C#m  B7     A
Joey Ramone,             aun no
        E  Emaj7  C#m  B7     A G#m F#m  E
Joey Ramone,             aun no,    aun no.


E Emaj7 C#m                   A
        No me importan los Ramones ya
                    E                C#m  B7
        si tu no estas, si no estas mas
        G#m                 C#m
        Y pensar que no te puedo ver
                 A        B5
        como te vi en el '93.


 SOLO:

e|---------------------------------------------------------|
B|---------------------------------------------------------|
G|-9-9-9-9-9--------------9------------9-------------------| (X2)
D|-9-9-9-9-9-9--7-7-7-7-7-9--7-7-7-7-7-9--9-9-9-9-9-9-7----|
A|-7-7-7-7-7-9--7-7-7-7-7-7--7-7-7-7-7-7--9-9-9-9-9-9-7----|
E|-----------7--5-5-5-5-5----5-5-5-5-5----7-7-7-7-7-7-7----|


FINAL:

e|--------------------|        e|-----------|
B|--------------------|        B|-----------|
G|-9--8--6--4-----4---| (X6)   G|-9-9-9-9-9-| (X4)
D|-9--8--6--4--7--4---|        D|-9-9-9-9-9-|
A|-7--6--4--2--7--2---|        A|-7-7-7-7-7-|
E|-------------5------|        E|-----------|


ACORDES:

       E                  Emaj7                C#m    4
-|---|---|---|E     -|---|---|---|E      -|---|---|---|E*
-|---|-*-|---|A     -|---|-*-|---|A      -|---|---|-I-|A
-|---|-*-|---|D     -|---|---|-*-|D      -|-*-|---|-I-|D
-|---|---|-*-|G     -|---|---|-*-|G      -|-*-|---|-I-|G
-|---|---|---|B     -|---|---|---|B      -|---|-*-|-I-|B
-|---|---|---|e     -|---|---|---|e      -|---|---|-I-|e

       B7    2             A                   G#m    4
-|---|---|---|E*    -|---|---|---|E      -|---|---|-I-|E
-|---|---|-I-|A     -|---|---|---|A      -|-*-|---|-I-|A
-|-*-|---|-I-|D     -|---|-*-|---|D      -|-*-|---|-I-|D
-|---|---|-I-|G     -|---|-*-|---|G      -|---|---|-I-|G
-|-*-|---|-I-|B     -|---|-*-|---|B      -|---|---|-I-|B
-|---|---|-I-|e     -|---|---|---|e      -|---|---|-I-|e

      F#m                 B5     2
-|---|---|-I-|E     -|---|---|---|E*
-|-*-|---|-I-|A     -|---|---|-*-|A
-|-*-|---|-I-|D     -|-*-|---|---|D
-|---|---|-I-|G     -|-*-|---|---|G
-|---|---|-I-|B     -|---|---|---|B*
-|---|---|-I-|e     -|---|---|---|e*


Eso es todo. Larga vida al punk-rock!!!
Y a Johnny, Joey, Dee Dee, C.J., Marky y Tommy!!!
Comentarioz, zugerenzias o petizionez al korreo
chonitoramone_sk8punk@
Suggest correction
Give kudos to tab author, rate the tab!
1 2 3 4 5
comments
print report bad tab
guest
Wanna post a correction for this tab? Suggest correction