Oops, an error
Loading. Please wait.

La Partida..( De Madre) Tab

49 views 1 this week
no commentswrite comment
1 2 3 4 5
3 more votes to show rating
add to favorites
launch autoscroll
font size
0
reset
how to read this tab
guitar tuner
×
Best way to learn
"La Partida..( De Madre)"
Autoscroll
slow
fast
+/-
esc
set tempo
stop
Esta es una pequeña correccion a la tab que estaba antes

Intro guitarra limpia

|---------------|
|-------3-1---1-|
|-------0---0---|
|---2-----------|
|-3---3---------| x6
|---------------|

  C
|-0----------|
|-1------1---|
|-0--------0-|
|-2----------|
|-3----------|
|------------|
 Tal vez

  Am
|-0----------------------|
|-1--------------3-1-----|
|-2------------------2---|
|-2--------------------2-|
|-0----------------------|
|------------------------|
 Bebi mas de la cuenta

  F
|-1---------------1-----|
|-1-----------------1---|
|-2---------------------|
|-3---------------------|
|-3---------------------|
|-1---------------------|
 ahogandote en mis penas

  Fm
|-1---------------1-----|
|-1-----------------1---|
|-1---------------------|
|-3---------------------|
|-3---------------------|
|-1---------------------|
 ahogandote en promesas

        C
|-------0--|
|-------1--|
|-------0--|
|-------2--|
|-------3--|
|----------|
 Te perdi

C
Tal Vez
Am
Pedi mas de la cuenta
F               G
tal vez estas palabras
       C
ke te di

Em
No tengan importancia
F                G
Es Solo una desgracia
      C
Para MI

         C
Vuelve a mi,
                             Em
llama tan solo kiero oir tu voz

                               F
Dame una historia dame una cancion
          G
Larga distancia
                    Em  G
para estar mucho mejor

      C
Te dare
                          Em
todas las horas en akel reloj
         G
de madrugada
          F
y cuando sale el sol
                             Em   G
de soledades, de amor y de dolor.


(con distorcion)

|-------|---------------------|---------------------|
|-------|---------------------|---------------------|
|-------|---------------------|---------------------|
|-3-5-5-|-5-5-5-7-5-------5-5-|-5-5-5-7-5-----------|
|-------|-----------7-5-------|-----------7-5---8-8-|
|-------|---------------7-----|---------------7-----|

|----------------------------|-------|
|----------------------------|-------|
|----------------------------|-------|
|----------------------------|-----3-|
|-8-8-8--7-5--5-5-5--5-7-8-7-|-5-3---|
|----------------------------|-------|


(guitarra limpia)

C                             Am
Sin apresurar las cosas te vere.
F                      G
No dire una palabra tonta
         C
no molestare
F                        G
no hablare de tristezas largas
       C           Am
me tendre ke contener

    F                 G
no dire ke me stoy muriendo
    F                 G
no dire ke me estoy muriendo
        C5 (con distorcion)
Por volverte a ver


(con distorcion)

         C5
Vuelve a mi,
                             E5
llama tan solo kiero oir tu voz

                               F5
Dame una historia dame una cancion
          G5
Larga distancia
                    E5  G5
para estar mucho mejor

      C5
Buskare
                           E5
todas las fotos en akel cajón
                    G5          F5
alguna carta ke me hable de amor
                                  E5  G5
y una botella para ahogar este dolor


(con palm mute)

C5                            A5
Sin apresurar las cosas te vere.
F5                     G5
No dire una palabra tonta
         C5
no molestare
F5                       G5
no hablare de tristezas largas
       C5          A5
me tendre ke contener

    F5                G5
no dire ke me stoy muriendo
    F5                G5
no dire ke me stoy muriendo
    F5                G5
no dire ke me estoy muriendo
        C5
Por volverte a ver
Suggest correction
Give kudos to tab author, rate the tab!
1 2 3 4 5
comments
print report bad tab
guest
You may want to rate the tab now too:
select rating
Wanna post a correction for this tab? Suggest correction