Oops, an error
Loading. Please wait.

Nena Boba Bass Tab

66 views 1 this week
no commentswrite comment
1 2 3 4 5
3 more votes to show rating
add to favorites
launch autoscroll
font size
0
reset
guitar tuner
×
Best way to learn
"Nena Boba"
Autoscroll
slow
fast
+/-
esc
set tempo
stop
TODA LA CANCION VA CON EL MISMO CIRCULO...

Intro:

G|----------------------------------------------------|
D|----------------------------------------------------|
A|-77777777-66-44444444-22-------------------77777777-|
E|-------------------------55555555-77777-99----------|


Necesito decirte algo tal vez te lastime pero es mi única verdad
me gusta el culo de tu vieja el de tu hermana y el mercedez que
tiene tu papa

G|----------------------------------------------------|
D|----------------------------------------------------|
A|-77777777-66-44444444-22-------------------77777777-|
E|-------------------------55555555-77777-99----------|

Vos estudiaste en un colegio Alemán privado y yo estudiaba
en el colegio nacional

Neeeeena Boba,Neeeeena Boba,Neeeeena Boba, no soi para vos

G|----------------------------------------------------|
D|----------------------------------------------------|
A|-77777777-66-44444444-22-------------------77777777-|
E|-------------------------55555555-77777-99----------|


Necesito decirte algo tal vez te lastime pero es mi unica verdad
me gusta el culo de tu vieja y de tu hermana y el mercedez que
tiene tu papa

G|----------------------------------------------------|
D|----------------------------------------------------|
A|-77777777-66-44444444-22-------------------77777777-|
E|-------------------------55555555-77777-99----------|

Neeeeena Boba,Neeeeena Boba,Neeeeena Boba, no soi para vos
Neeeeena Boba,Neeeeena Boba,Neeeeena Boba, no soi para vos

no soi para vos
Suggest correction
Give kudos to tab author, rate the tab!
1 2 3 4 5
comments
print report bad tab
guest
You may want to rate the tab now too:
select rating
Wanna post a correction for this tab? Suggest correction