Oops, an error
Loading. Please wait.

Puta Vida Bass

95 views 3 this week
no commentswrite comment
1 2 3 4 5
3 more votes to show rating
add to favorites
launch autoscroll
font size
0
reset
guitar tuner
×
Best way to learn
"Puta Vida"
Autoscroll
slow
fast
+/-
esc
set tempo
stop
Saben que gente .. una disculpa por los tabs anteriores, 
pero aki les va la version korrecta.

intro
G:------------------------|
D:------------------------| X 4
A:--4h55555555------------|
E:------------------------|

G:----------------------------------------------|
D:----------------------------2222--------------| X 2
A:------3333-------5555-------------33-55-------|
E:-3333------3333--------3333-------------3333--|

G:------------------------|
D:------------------------| X 4
A:-4h5555-4h5555----------|
E:------------------------|

G:------------------------|
D:------------------------| X 1
A:------------------------|
E:-3~---------------------|

G:------------------------|
D:------------------------| X 4
A:------------------------|
E:-333333-----------------|


Verso

G:------------------------|
D:------------------------| X 4
A:-----33335555-----------|
E:-3333--------3333-------|

Coro

G:------------------------------------|
D:------------------------------------|
A:-33333333---------3333333355555555--|
E:----------3333333-------------------|

Verso 2


G:------------------------|
D:-------------5555-------| X 6
A:-----33335555-----------|
E:-3333-------------------|

Se repite el coro y termina asi:

G:------------------------|
D:------------------------|
A:-5~---------------------|
E:------------------------|

y empieza "Se me entumio la mano de tokar ska"

Una diskulpa palomilla, para mentadas de madre
hotpants12211@
Suggest correction
Give kudos to tab author, rate the tab!
1 2 3 4 5
comments
print report bad tab
guest
You may want to rate the tab now too:
select rating
Wanna post a correction for this tab? Suggest correction