Oops, an error
Loading. Please wait.

Quisiera Que Supieras Lo Que Cuesta Empezar Tab

79 views 1 this week
no commentswrite comment
1 2 3 4 5
3 more votes to show rating
add to favorites
launch autoscroll
font size
0
reset
how to read this tab
guitar tuner
Autoscroll
slow
fast
+/-
esc
set tempo
stop
Help us to improve Ultimate-Guitar.com Take our survey!
×
la neta una mentada a la cuerda por que no puede aparecer todo
el nombre como es QUISIERA QUE SUPIERAS LO QUE CUESTA EMPEZAR
PINCHE VIEJA DE MIERDA, una breve historia la neta esta no es
de mis canciones favoritas de seguimos pero un dia en una peda
un compa me dijo que era la mejor cancion de ese album solo
por que dice en la letra que hay cosas que a el le pasaron y despues
me puse a pensar que es cierto  k a todos nos ha pasado esto por
una vieja; asi que dedicada al gory ...


1--2/7-7-7-7-6-6-6-11-11-11-12-12-12-11-11-11-14-14-14-12-12-12
2--2/7-7-7-7-6-6-6-11-11-11-12-12-12-11-11-11-14-14-14-12-12-12
3-------------------------------------------------------------- x2
4--------------------------------------------------------------
5--------------------------------------------------------------
6--------------------------------------------------------------

no digas mas k me kieres si ya se que te cojista a alguin mas

1--7-7-7-9-9-9-7-7-7-7-7-7-------------------------------------
2-6-6-6-7-7-7-6-6-6-5-5-5--------------------------------------
3--------------------------------------------------------------
4--------------------------------------------------------------
5--------------------------------------------------------------
6--------------------------------------------------------------

no llores mas no finjas k t duele si ya se k en tu vida no hay verdad

1--7-7-7-9-9-9-7-7-7-7-7-7-------------------------------------
2-6-6-6-7-7-7-6-6-6-5-5-5--------------------------------------
3--------------------------------------------------------------
4--------------------------------------------------------------
5--------------------------------------------------------------
6--------------------------------------------------------------

B                          E    G               B
quisiera estar en tu lugar para sentirme simpre igual para
           E               G                 B
no conocer jamas lo que es sufrir y recordar  quisiera
E               B          E            B          E              G
darte este dolor y que lo sientaS como yo quisiera K estuvieras mal


para k negar desde k te vi fuiste especial de ti me hiba a enamorar

1--7-7-7-9-9-9-7-7-7-7-7-7-------------------------------------
2-6-6-6-7-7-7-6-6-6-5-5-5--------------------------------------
3--------------------------------------------------------------
4--------------------------------------------------------------
5--------------------------------------------------------------
6--------------------------------------------------------------

ya k mas da si toke tu alma ahora no queda nada mas

1--7-7-7-9-9-9-7-7-7-7-7-7-------------------------------------
2-6-6-6-7-7-7-6-6-6-5-5-5--------------------------------------
3--------------------------------------------------------------
4--------------------------------------------------------------
5--------------------------------------------------------------
6--------------------------------------------------------------

B                          E    F#               B
quisiera estar en tu lugar para sentirme simpre igual para
           E                F#                B
no conocer jamas lo que es sufrir y recordar  quisiera
E               B          E            B          E             F#
darte este dolor y que lo sientaS como yo quisiera K estuvieras mal

""
B  E  F# F F# X2
G#1 E D# E  X3

D#/F# G#2 F#

1--2/7-7-7-7-6-6-6-11-11-11-12-12-12-11-11-11-14-14-14-12-12-12
2--2/7-7-7-7-6-6-6-11-11-11-12-12-12-11-11-11-14-14-14-12-12-12
3--------------------------------------------------------------
4--------------------------------------------------------------
5--------------------------------------------------------------
6--------------------------------------------------------------

B                          E    F#               B
quisiera estar en tu lugar para sentirme simpre igual para
           E                F#                B
no conocer jamas lo que es sufrir y recordar  quisiera
                E          F#            B                          E
que hoy a mis pies rogaras como lo hice ayer qusiera que supieras lo
                 F#
Que cuesta empezar....EMPEZAR
B    E    F#

ACORDES PARA QUE LA ENTIENDAN MEJOR

    B   E(normal)F#   G#1  B  E F#F G#2 D#(señalada con"")
1--------------------------------------------------------------
2--------------------------------------------------------------
3-----------------------------4-6-5-8---3----------------------
4------9---------11--------4--2-4-3-6---1----------------------
5--9---7---------9----6----2-----------------------------------
6--7------------------4----------------------------------------

la neta se ke no esta muy bien explicada pero sin encambio
si esta chingona la transcripcion si no luego la mejoro y esta
dedicada tambien para como dice la rola "las que se cojen a alguien
mas"
Suggest correction
Give kudos to tab author, rate the tab!
1 2 3 4 5
comments
print report bad tab
guest
You may want to rate the tab now too:
select rating
Wanna post a correction for this tab? Suggest correction