Oops, an error
Loading. Please wait.

Recuerdas Tab

70 views 1 this week
no commentswrite comment
1 2 3 4 5
3 more votes to show rating
add to favorites
launch autoscroll
font size
0
reset
how to read this tab
guitar tuner
×
Best way to learn
"Recuerdas"
Autoscroll
slow
fast
+/-
esc
set tempo
stop
NOTA: Solo coloco la forma en la que estan los acordes
de la cancion, el rasgueo o interpretacion de ellos
depende de cada quien como le gusta que suene.


INTRO:

     A
e|------------------------------------|
B|------------------------------------|
G|--8/9--11-9-9-9-11-9-9-9-11-9-11----| X2
D|--6/7---7-7-7-7--7-7-7-7--7-7--7----|
A|------------------------------------|
E|------------------------------------|

Y sigue de fondo mientras dice:

 "Recuerdas cuando nos conocimos,
 tus ojos cuando nos despedimos los mire hasta el final.."


Antes de terminar de decir "final"
cambia a "E" y se toca esto:

    E

e|--5-5-4-5-5-4---|
B|--5-5-5-5-5-5---|
G|--4-4-4-4-4-4---|
D|----------------|
A|----------------|
E|----------------|

         D                        E                     A     E

e|-------5------------------------7---------------------5------------|
B|-------7------------------------9---------------------5------------|
G|-------7------------------------9---------------------6------------|
D|-------7------------------------9---------------------7-----9-9-9--|
A|-------5------------------------7---------------------7-----7-7-7--|
E|------------------------------------------------------5------------|
"...El sueño que siempre habia tenido lo cumliste al mirar..."


El siguente verso es igual al primero,
pero se acompañan de los acordes completos:

     A
e|------------------------------------|
B|------------------------------------|
G|--8/9--11-9-9-9-11-9-9-9-11-9-11----| X2
D|--6/7---7-7-7-7--7-7-7-7--7-7--7----|
A|------------------------------------|
E|------------------------------------|

Y sigue de fondo mientras dice:

"Recuerdas cuando nos conocimos,
que esa noche solo dormirmos pero que al despertar..."

    E

e|--5-5-4-5-5-4---|
B|--5-5-5-5-5-5---|
G|--4-4-4-4-4-4---|
D|----------------|
A|----------------|
E|----------------|


        D (arpegiado)     E (arpegiado)      A     E

e|------5-----------------7------------------5-------------|
B|------7-----------------9------------------5-------------|
G|------7-----------------9------------------6-------------|
D|------7-----------------9------------------7-----9-9-9-9-|
A|------5-----------------7------------------7-----7-7-7-7-|
E|-------------------------------------------5-------------|
"...tu mano no dejaba la mia, nos queriamos ya..."


        D                      E        A                 F#m

e|------2----------------------4--5-4---5------------------5--------|
B|------3----------------------5--5-5---5------------------7--------|
G|------2----------------------4--4-4---6------------------6--------|
D|------0-------------------------------7------------------7--------|
A|--------------------------------------7---------------------------|
E|--------------------------------------5---------------------------|
"...Recuerdas cuando tu me querias, recuerdas cuando tu me lo decias..


        Bm                                    E

e|-----7---------------7--------------7-----------------------------|
B|-----7--------------7--------------7------------------------------|
G|-----7------------------------------------------------------------|
D|-----9-------------------------------------9-9-9-9-9-9-9-9-9-9-9--|
A|-----9------------9---------------9--------7-7-7-7-7-7-7-7-7-7-7--|
E|-----7-----------7--------------7---------------------------------|
...recuerdas que siempre juraste que me ibas a amar..."


     A
e|------------------------------------|
B|------------------------------------|
G|--8/9--11-9-9-9-11-9-9-9-11-9-11----| X2
D|--6/7---7-7-7-7--7-7-7-7--7-7--7----|
A|------------------------------------|
E|------------------------------------|

Y sigue de fondo mientras dice:

"Recuerdas cuando nos despedimos,
en estos años nunca he podido olvidarme que estas..."

    E

e|--5-5-4-5-5-4---|
B|--5-5-5-5-5-5---|
G|--4-4-4-4-4-4---|
D|----------------|
A|----------------|
E|----------------|

        D (arpegiado)      E (arpegiado)         A     E

e|------5-----------------7---------------------5-------------|
B|------7-----------------9---------------------5-------------|
G|------7-----------------9---------------------6-------------|
D|------7-----------------9---------------------7---9-9-9-9---|
A|------5-----------------7---------------------7---7-7-7-7---|
E|----------------------------------------------5-------------|
..."sentada o paseando feliz, pero con alguien más"


        D                      E        A                 F#m

e|------2----------------------4--5-4---5------------------5--------|
B|------3----------------------5--5-5---5------------------7--------|
G|------2----------------------4--4-4---6------------------6--------|
D|------0-------------------------------7------------------7--------|
A|--------------------------------------7---------------------------|
E|--------------------------------------5---------------------------|
"...Recuerdas cuando tu me querias, recuerdas cuando tu me lo decias.


        Bm                                    E

e|-----7---------------7--------------7-----------------------------|
B|-----7--------------7--------------7------------------------------|
G|-----7------------------------------------------------------------|
D|-----9-------------------------------------9-9-9-9-9-9-9-9-9-9-9--|
A|-----9------------9---------------9--------7-7-7-7-7-7-7-7-7-7-7--|
E|-----7----------7---------------7---------------------------------|
...recuerdas que siempre juraste que me ibas a amar..."


          D                 E        A                 F#m

e|--------2-----------------4--5-4---5------------------5--------|
B|--------3-----------------5--5-5---5------------------7--------|
G|--------2-----------------4--4-4---6------------------6--------|
D|--------0--------------------------7------------------7--------|
A|-----------------------------------7---------------------------|
E|-----------------------------------5---------------------------|
"...El tiempo ha pasado y sigo  pensando que ese no era mi destino...


        Bm                                    E

e|-----7---------------7--------------7-----------------------------|
B|-----7--------------7--------------7------------------------------|
G|-----7------------------------------------------------------------|
D|-----9----------------------------------------------9-9-9-9-9-9-9-|
A|-----9------------9---------------9-----------------7-7-7-7-7-7-7-|
E|-----7------------7---------------7-------------------------------|
...y ahora solo me queda el tiempo en que te pueda olvidar...


                      A      C#m   D     E      A

e|--------------------5------4-----5-----7-------5---------|
B|--------------------5------5-----7-----9-------5---------|
G|--------------------6------6-----7-----9-------6---------|
D|--------------------7------6-----7-----9-------7---------|
A|--------------------7------4-----5-----7-------7---------|
E|--------------------5--------------------------5---------|
...y no te quiero olvidar!"


Eso es todo, espero que les sea util, y por supuesto,
espero que le entiendan.

Cualquier duda, comentario, sugerencia o peticion,
al correo chonitoramone_sk8punk@
Suggest correction
Give kudos to tab author, rate the tab!
1 2 3 4 5
comments
print report bad tab
guest
You may want to rate the tab now too:
select rating
Wanna post a correction for this tab? Suggest correction